Puddle Of Mudd – She Hates Me
Tabbed by Linda P. ([email protected])
Eb tuning
On the 0 you just lift your hand over to the next chord.
Intro:
Guitar 1.
F Bmb G Cm F Bmb G Cm
|-----------------|-----------------|-----------------|-----------------|
|-----------------|-----------------|-----------------|-----------------|
|------2-------3--|----4---------5--|------2-------3--|----4---------5--|
|-----------------|-----------------|-----------------|-----------------|
|--------0-1------|0-----0-3---3---0|--------0-1------|0-----0-3---3---0|
|--1--------------|--3--------------|--1--------------|--3--------------|
| | | | |
| Guitar 2. | | | |
|-----------------|-----------------|-----------------|-----------------|
|-----------------|-----------------|-----------------|-----------------|
|-----------------|-----------------|-----------------|-----------------|
|-----------------|-----------------|-----------------|-----------------|
|-----------------|-----------------|-----------------|-----------------|
|-----------------|-----------------|-----------------|-----------------|
Verse 1:
Guitar 1.
F Bmb G Cm F Bmb G Cm
|-----------------|-----------------|-----------------|-----------------|
|-----------------|-----------------|-----------------|-----------------|
|------2-------3--|----4---------5--|------2-------3--|----4---------5--|
|-----------------|-----------------|-----------------|-----------------|
|--------0-1------|0-----0-3---3---0|--------0-1------|0-----0-3---3---0|
|--1--------------|--3--------------|--1--------------|--3--------------|
| | | | |
| Guitar 2. | | | |
|-----------------|-----------------|-----------------|-----------------|
|-----------------|-----------------|-----------------|-----------------|
|-----------------|-----------------|-----------------|-----------------|
|-----------------|-----------------|-----------------|-----------------|
|-----------------|-----------------|-----------------|-----------------|
|-----------------|-----------------|-----------------|-----------------|
Met a girl Thought she was grand Fell in love Found out first hand
Guitar 1.
F Bmb G Cm F Bmb G Cm
|-----------------|-----------------|-----------------|-----------------|
|-----------------|-----------------|-----------------|-----------------|
|------2-------3--|----4---------5--|------2-------3--|----4---------5--|
|-----------------|-----------------|-----------------|-----------------|
|--------0-1------|0-----0-3---3---0|--------0-1------|0-----0-3---3---0|
|--1--------------|--3--------------|--1--------------|--3--------------|
| | | | |
| Guitar 2. | | | |
|-----------------|-----------------|-----------------|-----------------|
|-----------------|-----------------|-----------------|-----------------|
|-----------------|-----------------|-----------------|-----------------|
|-----------------|-----------------|-----------------|-----------------|
|-----------------|-----------------|-----------------|-----------------|
|-----------------|-----------------|-----------------|-----------------|
Went well for a week or two Then it all came unglued
Guitar 1.
F Bmb G Cm F Bmb G Cm
|-----------------|-----------------|-----------------|-----------------|
|-----------------|-----------------|-----------------|-----------------|
|------2-------3--|----4---------5--|------2-------3--|----4---------5--|
|-----------------|-----------------|-----------------|-----------------|
|--------0-1------|0-----0-3---3---0|--------0-1------|0-----0-3---3---0|
|--1--------------|--3--------------|--1--------------|--3--------------|
| | | | |
| Guitar 2. | | | |
|-----------------|-----------------|-----------------|-----------------|
|-----------------|-----------------|-----------------|-----------------|
|-5b7p5-----------|-----------------|-5b7p5-----------|-----------------|
|-----------------|-----------------|-----------------|-----------------|
|-----------------|-----------------|-----------------|-----------------|
|-----------------|-----------------|-----------------|-----------------|
In a trap Trip I can’t grip Never thought I’d bee the one who’d slip

Guitar 1.
F Bmb G Cm F Bmb G Cm
|-----------------|-----------------|-----------------|-----------------|
|-----------------|-----------------|-----------------|-----------------|
|------2-------3--|----4---------5--|------2-------3--|----4---------5--|
|-----------------|-----------------|-----------------|-----------------|
|--------0-1------|0-----0-3---3---0|--------0-1------|0-----0-3---3---0|
|--1--------------|--3--------------|--1--------------|--3--------------|
| | | | |
| Guitar 2. | | | |
|-----------------|-----------------|-----------------|-----------------|
|-----------------|-----------------|-----------------|-----------------|
|-5b7p5-----------|-----------------|-5b7p5----7------|--7-5------------|
|-----------------|-----------------|-----------------|------7-5--------|
|-----------------|-----------------|-----------------|-----------------|
|-----------------|-----------------|-----------------|-----------------|
Then I started to realise I was living one big lie She fucking
Chorus:
Guitar 1.
F Bmb G Cm F Bmb G Cm
|-----------------|-----------------|-----------------|-----------------|
|-----------------|-----------------|-----------------|-----------------|
|------2-------3--|----4---------5--|------2-------3--|----4---------5--|
|-----------------|-----------------|-----------------|-----------------|
|--------0-1------|0-----0-3---3---0|--------0-1------|0-----0-3---3---0|
|--1--------------|--3--------------|--1--------------|--3--------------|
| | | | |
| Guitar 2. | | | |
|-----------------|-----------------|-----------------|-----------------|
|-----------------|-----------------|-----------------|-----------------|
|------2-------3--|----4---------5--|------2-------3--|----4---------5--|
|------3-------3--|----5---------5--|------3-------3--|----5---------5--|
|--------0-1------|0-----0-3---3---0|--------0-1------|0-----0-4---4---0|
|--1--------------|--3--------------|--1--------------|--3--------------|
Hates me Trust She fucking hates me la la la love I
Guitar 1.
F Bmb G Cm F Bmb G Cm
|-----------------|-----------------|-----------------|-----------------|
|-----------------|-----------------|-----------------|-----------------|
|------2-------3--|----4---------5--|------2-------3--|----4---------5--|
|-----------------|-----------------|-----------------|-----------------|
|--------0-1------|0-----0-3---3---0|--------0-1------|0-----0-3---3---0|
|--1--------------|--3--------------|--1--------------|--3--------------|
| | | | |
| Guitar 2. | | | |
|-----------------|-----------------|-----------------|-----------------|
|-----------------|-----------------|-----------------|-----------------|
|------2-------3--|----4---------5--|------2-------3--|----4---------5--|
|------3-------3--|----5---------5--|------3-------3--|----5---------5--|
|--------0-1------|0-----0-3---3---0|--------0-1------|0-----0-4---4---0|
|--1--------------|--3--------------|--1--------------|--3--------------|
tried too hard and she tore my feelings like I had none and ripped them away
Verse 2:
Guitar 1. Palm muted
F Bmb G Cm F Bmb G Cm
|-----------------|-----------------|-----------------|-----------------|
|-----------------|-----------------|-----------------|-----------------|
|------2-------3--|----4---------5--|------2-------3--|----4---------5--|
|-----------------|-----------------|-----------------|-----------------|
|--------0-1-1----|0-----0-3-3-3---0|--------0-1-1----|0-----0-3-3-3---0|
|--1-1------------|--3--------------|--1-1------------|--3--------------|
| * * * * * |* * * * * * *| * * * * * |* * * * * * *|
| Guitar 2. | | | |
|-----------------|-----------------|-----------------|-----------------|
|-----------------|-----------------|-----------------|-----------------|
|-5b7p5~~~~~~~~~--|-----------------|-5b7p5~~~~~~~~~--|-----------------|
|-----------------|-----------------|-----------------|-----------------|
|-----------------|-----------------|-----------------|-----------------|
|-----------------|-----------------|-----------------|-----------------|
She was queen for about an hour After that shit got sour
Guitar 1. Palm muted
F Bmb G Cm F Bmb G Cm
|-----------------|-----------------|-----------------|-----------------|
|-----------------|-----------------|-----------------|-----------------|
|------2-------3--|----4---------5--|------2-------3--|----4---------5--|
|-----------------|-----------------|-----------------|-----------------|
|--------0-1-1----|0-----0-3-3-3---0|--------0-1-1----|0-----0-3-3-3---0|
|--1-1------------|--3--------------|--1-1------------|--3--------------|
| * * * * * |* * * * * * *| * * * * * |* * * * * * *|
| Guitar 2. | | | |
|-----------------|-----------------|-----------------|-----------------|
|-----------------|-----------------|-----------------|-----------------|
|-5b7p5~~~~~~~~~--|-----------------|-5b7p5----7------|----5------------|
|-----------------|-----------------|-----------------|------7-5--------|
|-----------------|-----------------|-----------------|-----------------|
|-----------------|-----------------|-----------------|-----------------|
She took all I ever had No sign of guilt No feeling bad No
Guitar 1.
F Bmb G Cm F Bmb G Cm
|-----------------|-----------------|-----------------|-----------------|
|-----------------|-----------------|-----------------|-----------------|
|---------3-3-3-30|---------5-5-5-50|---------3-3-3-30|---------5-5-5-50|
|3-3-3-30-3-3-3-30|5-5-5----5-5-5-50|3-3-3-30-3-3-3-30|5-5-5----5-5-5-50|
|3-3-3-30-1-1-1-10|5-5-5----3-3-3-30|3-3-3-30-1-1-1-10|5-5-5----3-3-3-30|
|1-1-1-10---------|3-3-3------------|1-1-1-10---------|3-3-3------------|
| ** **| **| ** **| **|
|Guitar 2. | | | |
|-----------------|-----------------|-----------------|-----------------|
|-----------------|-----------------|-----------------|-----------------|
|-5b7p5~~~~~~~~~--|-----------------|-5b7p5~~~~~~~~~--|-----------------|
|-----------------|-----------------|-----------------|-----------------|
|-----------------|-----------------|-----------------|-----------------|
|-----------------|-----------------|-----------------|-----------------|
In a trap Trip I can’t grip Never thought I’d bee the one who’d slip
Guitar 1.
F Bmb G Cm F Bmb G Cm
|-----------------|-----------------|-----------------|-----------------|
|-----------------|-----------------|-----------------|-----------------|
|---------3-3-3-30|---------5-5-5-50|---------3-3-3-30|---------5-5-5-50|
|3-3-3-30-3-3-3-30|5-5-5----5-5-5-50|3-3-3-30-3-3-3-30|5-5-5----5-5-5-50|
|3-3-3-30-1-1-1-10|5-5-5----3-3-3-30|3-3-3-30-1-1-1-10|5-5-5----3-3-3-30|
|1-1-1-10---------|3-3-3------------|1-1-1-10---------|3-3-3------------|
| ** **| **| ** **| **|
|Guitar 2. | | | |
|-----------------|-----------------|-----------------|-----------------|
|-----------------|-----------------|-----------------|-----------------|
|-5b7p5~~~~~~~~~--|-----------------|-5b7p5~~~~~~~~~--|-----------------|
|-----------------|-----------------|-----------------|-----------------|
|-----------------|-----------------|-----------------|-----------------|
|-----------------|-----------------|-----------------|-----------------|
Then I started to realise I was living one big lie She fucking
Chorus:
Guitar 1.
F Bmb G Cm F Bmb G Cm
|-----------------|-----------------|-----------------|-----------------|
|-----------------|-----------------|-----------------|-----------------|
|---------3-3-3-0-|--------5--5-5---|---------3-3-3-0-|--------5--5-5---|
|-3-3-3-0-3-3-3-0-|-5-5-5--5--5-5---|-3-3-3-0-3-3-3-0-|-5-5-5--5--5-5---|
|-3-3-3-0-1-1-1-0-|-5-5-5--3--3-3---|-3-3-3-0-1-1-1-0-|-5-5-5--3--3-3---|
|-1-1-1-0---------|-3-3-3-----------|-1-1-1-0---------|-3-3-3-----------|
| * * | | * * | |
| Guitar 2. | | | |
|-----------------|-----------------|-----------------|-----------------|
|-----------------|-----------------|-----------------|-----------------|
|---------3-3-3-0-|--------5--5-5---|---------3-3-3-0-|--------5--5-5---|
|-3-3-3-0-3-3-3-0-|-5-5-5--5--5-5---|-3-3-3-0-3-3-3-0-|-5-5-5--5--5-5---|
|-3-3-3-0-1-1-1-0-|-5-5-5--3--3-3---|-3-3-3-0-1-1-1-0-|-5-5-5--3--3-3---|
|-1-1-1-0---------|-3-3-3-----------|-1-1-1-0---------|-3-3-3-----------|
* * * *
Hates me Trust She fucking hates me la la la love I
Guitar 1.
F Bmb G Cm F Bmb G Cm
|-----------------|-----------------|-----------------|-----------------|
|-----------------|-----------------|-----------------|-----------------|
|---------3-3-3-0-|--------5--5-5---|---------3-3-3-0-|--------5--5-5---|
|-3-3-3-0-3-3-3-0-|-5-5-5--5--5-5---|-3-3-3-0-3-3-3-0-|-5-5-5--5--5-5---|
|-3-3-3-0-1-1-1-0-|-5-5-5--3--3-3---|-3-3-3-0-1-1-1-0-|-5-5-5--3--3-3---|
|-1-1-1-0---------|-3-3-3-----------|-1-1-1-0---------|-3-3-3-----------|
| * * | | * * | |
| Guitar 2. | | | |
|-----------------|-----------------|-----------------|-----------------|
|-----------------|-----------------|-----------------|-----------------|
|---------3-3-3-0-|--------5--5-5---|---------3-3-3-0-|--------5--5-5---|
|-3-3-3-0-3-3-3-0-|-5-5-5--5--5-5---|-3-3-3-0-3-3-3-0-|-5-5-5--5--5-5---|
|-3-3-3-0-1-1-1-0-|-5-5-5--3--3-3---|-3-3-3-0-1-1-1-0-|-5-5-5--3--3-3---|
|-1-1-1-0---------|-3-3-3-----------|-1-1-1-0---------|-3-3-3-----------|
* * * *
tried too hard and she tore my feelings like I had none and ripped them away
Solo:
Guitar 1. (with wah)
|-----------------|-----------------|-----------------|-----------------|
|-----------------|-----------------|-----------------|-----------------|
|---------3-3-3-3-|---3---5-5b7b5---|---------3-3-3-3-|---3---5-5b7b5---|
|-3-3-3-3---------|-5---5-----------|-3-3-3-3---------|-5---5-----------|
|-----------------|-----------------|-----------------|-----------------|
|-----------------|-----------------|-----------------|-----------------|
| | | | |
| Guitar 2. | | | |
|-----------------|-----------------|-----------------|-----------------|
|-----------------|-----------------|-----------------|-----------------|
|---------3-3-3-0-|--------5--5-5---|---------3-3-3-0-|--------5--5-5---|
|-3-3-3-0-3-3-3-0-|-5-5-5--5--5-5---|-3-3-3-0-3-3-3-0-|-5-5-5--5--5-5---|
|-3-3-3-0-1-1-1-0-|-5-5-5--3--3-3---|-3-3-3-0-1-1-1-0-|-5-5-5--3--3-3---|
|-1-1-1-0---------|-3-3-3-----------|-1-1-1-0---------|-3-3-3-----------|
* * * *
Guitar 1. (with wah)
|-------------------------|----------------------|------------|-----------|
|-------------------------|----------------------|------------|-----------|
|(14-15-17-17-17-17-17-17-|----15----15—15b17b15-|-14-14-14-14|17-17-17-17|
|-15-15-15-15-17-17-17-17-|-17----17-------------|-15-15-15-15|17-17-17-17|
|-------------------------|----------------------|------------|-----------|
|-------------------------|----------------------|------------|-----------|
| | | | |
| Guitar 2. _______| ____________| _______| _|
|-----------------|-----------------|-----------------|-----------------|
|-----------------|-----------------|-----------------|-----------------|
|---------3-3-3-0-|--------5--5-5---|---------3-3-3-0-|--------5--5-5---|
|-3-3-3-0-3-3-3-0-|-5-5-5--5--5-5---|-3-3-3-0-3-3-3-0-|-5-5-5--5--5-5---|
|-3-3-3-0-1-1-1-0-|-5-5-5--3--3-3---|-3-3-3-0-1-1-1-0-|-5-5-5--3--3-3---|
|-1-1-1-0---------|-3-3-3-----------|-1-1-1-0---------|-3-3-3-----------|
* * * *
Rest of solo on guitar 1.from above:
Guitar 1.
|----------------|
|----------------|
|----15----17b/--|
|-17----17-------|
|----------------|
|----------------|
Verse 3:
Guitar 1.
F Bmb G Cm F Bmb G Cm
|-----------------|-----------------|-----------------|-----------------|
|-----------------|-----------------|-----------------|-----------------|
|-----------------|-----------------|------2-------3--|----4---------5--|
|-3---------------|-----------------|-----------------|-----------------|
|-3----Let ring---|-----------------|--------0-1------|0-----0-3---3---0|
|-1---------------|-----------------|--1--------------|--3--------------|
| | | | |
| Guitar 2. | | | |
|-----------------|-----------------|--13-13-13-------|-----------------|
|-----------------|-----------------|-----------------|-----------------|
|-----------------|-----------------|-----------------|-----------------|
|-3---------------|-----------------|-----------------|-----------------|
|-3----Let ring---|-----------------|-----------------|-----------------|
|-1---------------|-----------------|-----------------|-----------------|
* * *
That’s my story as you see Learned my lesson and so did she
Guitar 1.
F Bmb G Cm F Bmb G Cm
|-----------------|-----------------|-----------------|-----------------|
|-----------------|-----------------|-----------------|-----------------|
|------2-------3--|----4---------5--|---------3-3-3-3-|---------5-5-5-5-|
|-----------------|-----------------|-3-3-3-3-3-3-3-3-|-5-5-5---5-5-5-5-|
|--------0-1------|0-----0-3---3---0|-3-3-3-3-1-1-1-1-|-5-5-5---3-3-3-3-|
|--1--------------|--3--------------|-1-1-1-1---------|-3-3-3-----------|
| | | * * * * * * * * | * * * * * |
| Guitar 2. | | | |
|-----------------|-----------------|-----------------|-----------------|
|-----------------|-----------------|-----------------|-----------------|
|-5b7p5~~~~~~~~~--|-----------------|-5b7p5~~~~~~~~~--|-----------------|
|-----------------|-----------------|-----------------|-----------------|
|-----------------|-----------------|-----------------|-----------------|
|-----------------|-----------------|-----------------|-----------------|
Now it’s over and I’m glad ‘cause I’m a fool for all I’ve said She fucking
Chorus:
Guitar 1.
F Bmb G Cm F Bmb G Cm
|-----------------|-----------------|-----------------|-----------------|
|-----------------|-----------------|-----------------|-----------------|
|---------3-3-3-0-|--------5--5-5---|---------3-3-3-0-|--------5--5-5---|
|-3-3-3-0-3-3-3-0-|-5-5-5--5--5-5---|-3-3-3-0-3-3-3-0-|-5-5-5--5--5-5---|
|-3-3-3-0-1-1-1-0-|-5-5-5--3--3-3---|-3-3-3-0-1-1-1-0-|-5-5-5--3--3-3---|
|-1-1-1-0---------|-3-3-3-----------|-1-1-1-0---------|-3-3-3-----------|
| * * | | * * | |
| Guitar 2. | | | |
|-----------------|-----------------|-----------------|-----------------|
|-----------------|-----------------|-----------------|-----------------|
|---------3-3-3-0-|--------5--5-5---|---------3-3-3-0-|--------5--5-5---|
|-3-3-3-0-3-3-3-0-|-5-5-5--5--5-5---|-3-3-3-0-3-3-3-0-|-5-5-5--5--5-5---|
|-3-3-3-0-1-1-1-0-|-5-5-5--3--3-3---|-3-3-3-0-1-1-1-0-|-5-5-5--3--3-3---|
|-1-1-1-0---------|-3-3-3-----------|-1-1-1-0---------|-3-3-3-----------|
* * * *
Hates me Trust She fucking hates me la la la love I
Guitar 1.
F Bmb G Cm F Bmb G Cm
|-----------------|-----------------|-----------------|-----------------|
|-----------------|-----------------|-----------------|-----------------|
|---------3-3-3-0-|--------5--5-5---|---------3-3-3-0-|--------5--5-5---|
|-3-3-3-0-3-3-3-0-|-5-5-5--5--5-5---|-3-3-3-0-3-3-3-0-|-5-5-5--5--5-5---|
|-3-3-3-0-1-1-1-0-|-5-5-5--3--3-3---|-3-3-3-0-1-1-1-0-|-5-5-5--3--3-3---|
|-1-1-1-0---------|-3-3-3-----------|-1-1-1-0---------|-3-3-3-----------|
| * * | | * * | |
| Guitar 2. | | | |
|-----------------|-----------------|-----------------|-----------------|
|-----------------|-----------------|-----------------|-----------------|
|---------3-3-3-0-|--------5--5-5---|---------3-3-3-0-|--------5--5-5---|
|-3-3-3-0-3-3-3-0-|-5-5-5--5--5-5---|-3-3-3-0-3-3-3-0-|-5-5-5--5--5-5---|
|-3-3-3-0-1-1-1-0-|-5-5-5--3--3-3---|-3-3-3-0-1-1-1-0-|-5-5-5--3--3-3---|
|-1-1-1-0---------|-3-3-3-----------|-1-1-1-0---------|-3-3-3-----------|
* * * *
tried too hard and she tore my feelings like I had none and ripped them away
Guitar 1.
F Bmb G Cm F Bmb G Cm
|-----------------|-----------------|-----------------|-----------------|
|-----------------|-----------------|-----------------|-----------------|
|---------3-3-3-0-|--------5--5-5---|---------3-3-3-0-|--------5--5-5---|
|-3-3-3-0-3-3-3-0-|-5-5-5--5--5-5---|-3-3-3-0-3-3-3-0-|-5-5-5--5--5-5---|
|-3-3-3-0-1-1-1-0-|-5-5-5--3--3-3---|-3-3-3-0-1-1-1-0-|-5-5-5--3--3-3---|
|-1-1-1-0---------|-3-3-3-----------|-1-1-1-0---------|-3-3-3-----------|
| * * | | * * | |
| Guitar 2. | | | |
|-----------------|-----------------|-----------------|-----------------|
|9b10p6~~~~~~~~~--|-----------9b10p6|~~~~~~~~~~~------|-----------9b10p6|
|-----------------|-----------------|-----------------|-----------------|
|-----------------|-----------------|-----------------|-----------------|
|-----------------|-----------------|-----------------|-----------------|
|-----------------|-----------------|-----------------|-----------------|
la la la la la la la la la love Trust la la la la la la la la la love Trust

Guitar 1.
F Bmb G Cm F Bmb G Cm
|-----------------|-----------------|-----------------|-----------------|
|-----------------|-----------------|-----------------|-----------------|
|---------3-3-3-0-|--------5--5-5---|---------3-3-3-0-|--------5--5-5---|
|-3-3-3-0-3-3-3-0-|-5-5-5--5--5-5---|-3-3-3-0-3-3-3-0-|-5-5-5--5--5-5---|
|-3-3-3-0-1-1-1-0-|-5-5-5--3--3-3---|-3-3-3-0-1-1-1-0-|-5-5-5--3--3-3---|
|-1-1-1-0---------|-3-3-3-----------|-1-1-1-0---------|-3-3-3-----------|
| * * | | * * | |
| Guitar 2. | | | |
|-----------------|-----------------|-----------------|-----------------|
|~~~~~~~~~--------|-----------9b10p6|~~~~~~~~~~~------|-----------9b10p6|
|-----------------|-----------------|-----------------|-----------------|
|-----------------|-----------------|-----------------|-----------------|
|-----------------|-----------------|-----------------|-----------------|
|-----------------|-----------------|-----------------|-----------------|
la la la la la la la la la love Trust la la la la la la la la la love She fucking
and she tore my feelings like I had none
Guitar 1.
|-----------------|-----------------|
|-----------------|-----------------|
|-----------------|-----------------|
|--3-------3------|-----------------|
|--3-------3------|-----------------|
|--1-------1------|-----------------|
| | |
| Guitar 2. | |
|-----------------|-----------------|
|-----------------|-----------------|
|-----------------|-----------------|
|--3-------3------|-----------------|
|--3-------3------|-----------------|
|--1-------1------|-----------------|
Hates Me
Guitar 1.
F Bmb G Cm F Bmb G Cm
|-----------------|-----------------|-----------------|-----------------|
|-----------------|-----------------|-----------------|-----------------|
|---------3-3-3-0-|--------5--5-5---|---------3-3-3-0-|--------5--5-5---|
|-3-3-3-0-3-3-3-0-|-5-5-5--5--5-5---|-3-3-3-0-3-3-3-0-|-5-5-5--5--5-5---|
|-3-3-3-0-1-1-1-0-|-5-5-5--3--3-3---|-3-3-3-0-1-1-1-0-|-5-5-5--3--3-3---|
|-1-1-1-0---------|-3-3-3-----------|-1-1-1-0---------|-3-3-3-----------|
| | | | |
| Guitar 2. | | | |
|-----------------|-----------------|-----------------|-----------------|
|-----------------|-----------------|-----------------|-----------------|
|-----------------|-----------------|-----------------|-----------------|
|-----------------|-----------------|-----------------|-----------------|
|-----------------|-----------------|-----------------|-----------------|
|-----------------|-----------------|-----------------|-----------------|
Guitar 1.
F Bmb G Cm F Bmb G Cm
|-----------------|-----------------|-----------------|-----------------|
|-----------------|-----------------|-----------------|-----------------|
|---------3-3-3-0-|--------5--5-5---|---------3-3-3-0-|--------5--5-5---|
|-3-3-3-0-3-3-3-0-|-5-5-5--5--5-5---|-3-3-3-0-3-3-3-0-|-5-5-5--5--5-5---|
|-3-3-3-0-1-1-1-0-|-5-5-5--3--3-3---|-3-3-3-0-1-1-1-0-|-5-5-5--3--3-3---|
|-1-1-1-0---------|-3-3-3-----------|-1-1-1-0---------|-3-3-3-----------|
| | | | |
| Guitar 2. | | | |
|-----------------|-----------------|-----------------|-----------------|
|-----------------|-----------------|-----------------|-----------------|
|-----------------|-----------------|-----------------|-----------------|
|-----------------|-----------------|-----------------|-----------------|
|-----------------|-----------------|-----------------|-----------------|
|-----------------|-----------------|-----------------|-----------------|
Guitar 1.
F Bmb G Cm F Bmb G Cm
|-----------------|-----------------|-----------------|-----------------|
|-----------------|-----------------|-----------------|-----------------|
|---------3-3-3-0-|--------5--5-5---|---------3-3-3-0-|--------5--5-5---|
|-3-3-3-0-3-3-3-0-|-5-5-5--5--5-5---|-3-3-3-0-3-3-3-0-|-5-5-5--5--5-5---|
|-3-3-3-0-1-1-1-0-|-5-5-5--3--3-3---|-3-3-3-0-1-1-1-0-|-5-5-5--3--3-3---|
|-1-1-1-0---------|-3-3-3-----------|-1-1-1-0---------|-3-3-3-----------|
| | | | |
| Guitar 2. | | | |
|-----------------|-----------------|-----------------|-----------------|
|-----------------|-----------------|-----------------|-----------------|
|-----------------|-----------------|-----------------|-----------------|
|-----------------|-----------------|-----------------|-----------------|
|-----------------|-----------------|-----------------|-----------------|
|-----------------|-----------------|-----------------|-----------------|
Lyrics:
Met a girl
Thought she was grand
Fell in love
Found out first hand
Went well for a week or two
Then it all came unglued
In a trap
Trip I can’t grip
Never thought I’d be the one who’d slip
Then I started to realise
I was living one big lie
She fucking hates me
Trust
She fucking hates me
La la la love
I tried too hard
And she tore my feelings like I had none
And ripped them away
She was queen
For about an hour
After that
Shit got sour
She took all I ever had
No sign of guilt
No feeling bad
NO
In a trap
Trip I can’t grip
Never thought I’d be the one who’d slip
Then I started to realise
I was living one big lie
She fucking hates me
Trust
She fucking hates me
La la la love
I tried too hard
And she tore my feelings like I had none
And ripped them away
That’s my story
As you see
Learned my lesson
And so did she
Now it’s over
And I’m glad
‘Cause I’m a fool
For all I’ve said
She fucking hates me
Trust
She fucking hates me
La la la love
I tried too hard
And she tore my feelings like I had none
And ripped them away
La la la la la la la la la love
Trust
La la la la la la la la la love
Trust
La la la la la la la la la love
And she tore my feelings like I had none
La la la la la la la la la love
She fucking hates me


Ваше мнение



Капча