(guitar 1) (guitar 2 ) (during
verse)
E------------------------------------l
B------------------------------------l
G------------------------------------l
D-----2--------7-------4-------9-----l
A-----2--------7-------4-------9-----l
E--0-----0--5----0--2-----7-7--------l

E-------------------l-------------------------------------
B-------------------l-------------------------------------
G-------------------l-------------------------------------
D----9h11p9---------l---9h11p9--------11--9---------------
A-------------------l-----------------------------11--9---
E-------------------l-------------------------------------
Chorus ( with dist)

E---------------------------------------------------------
B---------------------------------------------------------
G---------------------------------------------------------
D----2-2-2-2---7-7-7-7--4-4-4-4--9-9-9-9------------------ (4x)
A ---2-2-2-2---7-7-7-7--4-4-4-4--9-9-9-9------------------
E----0-0-0-0---5-5-5-5--2-2-2-2--7-7-7-7------------------

Verse (Guitar 1 continues main riff, guitar 2does as shown)
(all palm muted)
E---------------------------------------------------------
B---------------------------------------------------------
G---------------------------------------------------------
D--2-2-2-2--7-7-7-7--4-4-4-4--9-9-9-9---------------------
A--2-2-2-2--7-7-7-7--4-4-4-4--9-9-9-9---------------------
E--0-0-0-0--5-5-5-5--2-2-2-2--7-7-7-7---------------------

Guitar Solo ( w/ wah-wah)

E---------------------------------------------------------
B---------------------------------------------------------
G---------------------------------------------------------
D---0-0-0-0----5-5-5-5--2h5p2/7---------------------------
A---------------------------------------------------------
E---------------------------------------------------------





Ваше мнение



Капча