Said-Puddle Of Mudd
Come Clean
Eb:
Eb Ab Db Gb Bb Eb
Intro: fade in tremolo picking
e-0---------------------------------------------------------------
b-0---------------------------------------------------------------
g-4---------------------------------------------------------------
d-5---------------------------------------------------------------
a-5---------------------------------------------------------------
e-3---------------------------------------------------------------
x4
gtr. 1
e-----------------------------------------0---------------0-------
b--------0----------------0-------------------0---------------0---
g------------3----------------3-----------------------------------
d-----4----------------4----------------5---------------5---------
a---4----------------4----------------5---------------5-----------
e-2----------------2----------------3---------------3-------------
gtr. 2
e-0---------------------------------0-----------------------------
b-0---------------------------------0-----------------------------
g-3---------------------------------4-------------------------6---
d-4---------------------------------5-------------------------7---
a-4---------------------------------5-------------------------7---
e-2---------------------------------3-------------------------5---
Verses:
e-0---------------------------------0-----------------------------
b-0---------------------------------0-----------------------------
g-3---------------------------------4-------------------------6---
d-4---------------------------------5-------------------------7---
a-4---------------------------------5-------------------------7---
e-2---------------------------------3-------------------------5---
Chorus:
e-0-----0---0-----------------------------------------------------
b-5-----5---5-------12---12-12-12-12-12-----------------5-5-------
g-4-----4---4-------14b~~14-14-14-14-14-0---------------4-4-------
d-2-4-4-2-4-2-2----------------------------4---4-----2----2-------
a-2-4-4-2-4-2-0----------------------------4---4---2-2-------9-9-9
e-0-2-2-0-2-0------------------------------2---2---0-0-------7-7-7
Inetrlude:
e------------------------------0-0--0---0-0---0-0--0-0-0-0---
b------------------------------0-0--0---0-0---0-0--0-0-0-0---
g------------------------------4-4--4---4-4---4-4--4-4-4-4---
d-4-4--4---4-4---4-4--4-4-4-4--5-5--5---5-5---5-5--5-5-5-5---
a-4-4--4---4-4---4-4--4-4-4-4--5-5--5---5-5---5-5--5-5-5-5---
e-2-2--2---2-2---2-2--2-2-2-2--3-3--3---3-3---3-3--3-3-3-3---
that’s about all
just repeat figures
trevor jones
[email protected]





Ваше мнение



Капча