Out Of My Head-Puddle Of Mudd
Come Clean
Drop Db:
Db Ab Db Gb Bb Eb
* = harmonic
Intro:
e-----------------------------------------------------------------
b-----------------------------------------------------------------
g-----------------------------------------------------------------
d-----------------------------------------------------------------
a-----------------------------------------------------------------
d---------------------------------------------------------8-8-8-0-
e-----------------------------------------------------------------
b-----------------------------------------------------------------
g-----------------------------------------------------------------
d-----------------------------------------------------------------
a-----------------------------------------------------------------
d---0-4-0-0-0-4-0-0-0-4-0-8-8-8-0---0-4-0-0-0-4-0-0-0-4-0-8-8-8-0-
* * * * * *
e-----------------------------------------------------------------
b-----------------------------------------------------------------
g-------------------------------------------------5-5-5-5-3-3-3---
d-------------------------------------------------5-5-5-5-3-3-3-0-
a-------------------------------------------------3-3-3-3-1-1-1-0-
d---0-4-0-0-0-4-0-0-0-4-0-8-8-8-0---0-4-0-0-0-4-0---------------0-
* * * * *
e-----------------------------------------------------------------
b-----------------------------------------------------------------
g----11------11------11--------------11------11------11-----------
d---0-x-0-0-0-x-0-0-0-x-0-8-8-8-0---0-x-0-0-0-x-0-0-0-x-0-8-8-8-0-
a---0-9-0-0-0-9-0-0-0-9-0-8-8-8-0---0-9-0-0-0-9-0-0-0-9-0-8-8-8-0-
d---0---0-0-0---0-0-0---0-8-8-8-0---0---0-0-0---0-0-0---0-8-8-8-0-
e-----------------------------------------------------------------
b-----------------------------------------------------------------
g----11------11------11--------------11------11---5-5-5-5-3-3-3---
d---0-x-0-0-0-x-0-0-0-x-0-8-8-8-0---0-x-0-0-0-x-0-5-5-5-5-3-3-3-0-
a---0-9-0-0-0-9-0-0-0-9-0-8-8-8-0---0-9-0-0-0-9-0-3-3-3-3-1-1-1-0-
d---0---0-0-0---0-0-0---0-8-8-8-0---0---0-0-0---0---------------0-
Verses 1&2: Fig 1.
Chorus:
gtr. 1
e-----------------------------------------------------------------
b-----------------------------------------------------------------
g-----------------------------------------------------------------
d---------------------------------5-5-5-5-5-5-5-5-----------------
a---0-0-0-0-0-0-0-0-0-0-0-0-0-0-0-3-3-3-3-3-3-3-3-3-3-3-3-3-3-3-3-
d---0-0-0-0-0-0-0-0-0-0-0-0-0-0-0-----------------3-3-3-3-3-3-3-3-
gtr. 2
e-----------------------------------------------------------------
b-----------------------------------------------------------------
g-7-7-7-7-7-7-7-7-7-7-7-7-7-7-7-7-9-9-9-9-9-9-9-9-5-5-5-5-5-5-5-5-
d-x-x-x-x-x-x-x-x-x-x-x-x-x-x-x-x-x-x-x-x-x-x-x-x-x-x-x-x-x-x-x-x-
a-5-5-5-5-5-5-5-5-5-5-5-5-5-5-5-5-7-7-7-7-7-7-7-7-3-3-3-3-3-3-3-3-
d-----------------------------------------------------------------
gtr. 1
e-----------------------------------------------------------------
b-----------------------------------------------------------------
g-----------------------------------------------------------------
d---------------------------------5-5-5-5-5-5-5-5-----------------
a---0-0-0-0-0-0-0-0-0-0-0-0-0-0-0-3-3-3-3-3-3-3-3-3-3-3-3-8-8-8-0-
d---0-0-0-0-0-0-0-0-0-0-0-0-0-0-0-----------------3-3-3-3-8-8-8-0-
gtr. 2
e-----------------------------------------------------------------
b-----------------------------------------------------------------
g-7-7-7-7-7-7-7-7-7-7-7-7-7-7-7-7-9-9-9-9-9-9-9-9-14----14-14-----
d-x-x-x-x-x-x-x-x-x-x-x-x-x-x-x-x-x-x-x-x-x-x-x-x--x-----x--x-----
a-5-5-5-5-5-5-5-5-5-5-5-5-5-5-5-5-7-7-7-7-7-7-7-7-12----12-12-----
d---------------------------------------------------------------0-
gtr. 1&2
e-----------------------------------------------------------------
b-----------------------------------------------------------------
g-----------------------------------------------------------------
d-----------------------------------------------------------------
a-----------------------------------------------------------------
d---0-4-0-0-0-4-0-0-0-4-0-8-8-8-0---0-4-0-0-0-4-0-0-0-4-0-8-8-8-0-
* * * * * *
e-----------------------------------------------------------------
b-----------------------------------------------------------------
g----11------11------11--------------11------11------11-----------
d---0-x-0-0-0-x-0-0-0-x-0-8-8-8-0---0-x-0-0-0-x-0-0-0-x-0-8-8-8-0-
a---0-9-0-0-0-9-0-0-0-9-0-8-8-8-0---0-9-0-0-0-9-0-0-0-9-0-8-8-8-0-
d---0---0-0-0---0-0-0---0-8-8-8-0---0---0-0-0---0-0-0---0-8-8-8-0-
e-----------------------------------------------------------------
b-----------------------------------------------------------------
g----11------11------11--------------11------11---5-5-5-5-3-3-3---
d---0-x-0-0-0-x-0-0-0-x-0-8-8-8-0---0-x-0-0-0-x-0-5-5-5-5-3-3-3-0-
a---0-9-0-0-0-9-0-0-0-9-0-8-8-8-0---0-9-0-0-0-9-0-3-3-3-3-1-1-1-0-
d---0---0-0-0---0-0-0---0-8-8-8-0---0---0-0-0---0---------------0-
Bridge:
gtr. 1
e-----------------------------------------------------------------
b-----------------------------------------------------------------
g-----------------------------------------------------------------
d---------------------------------5-5-5-5-5-5-5-5-----------------
a-0-0-0-0-0-0-0-0-0-0-0-0-0-0-0-0-3-3-3-3-3-3-3-3-3-3-3-3-3-3-3-3-
d-0-0-0-0-0-0-0-0-0-0-0-0-0-0-0-0-----------------3-3-3-3-3-3-3-3-
gtr. 2
e-------------------------------------------------8-8-8-8-8-8-8-8-
b101010101010101010101010-7-7-7-7-8-8-8-8-8-8-8-8-x-x-x-x-x-x-x-x-
g-x-x-x-x-x-x-x-x-x-x-x-x-x-x-x-x-x-x-x-x-x-x-x-x-5-5-5-5-5-5-5-5-
d-7-7-7-7-7-7-7-7-7-7-7-7-4-4-4-4-5-5-5-5-5-5-5-5-----------------
a-----------------------------------------------------------------
d-----------------------------------------------------------------
gtr. 1
e-----------------------------------------------------------------
b-----------------------------------------------------------------
g-----------------------------------------------------------------
d---------------------------------5-5-5-5-5-5-5-5-----------------
a-0-0-0-0-0-0-0-0-0-0-0-0-0-0-0-0-3-3-3-3-3-3-3-3-3-3-3-3-3-3-3-3-
d-0-0-0-0-0-0-0-0-0-0-0-0-0-0-0-0-----------------3-3-3-3-3-3-3-3-
gtr. 2
e-----------------------------------------------------------------
b101010101010101010101010-7-7-7-7-8-8-8-8-8-8-8-6-6-6-6-6-6-6-6-6-
g-x-x-x-x-x-x-x-x-x-x-x-x-x-x-x-x-x-x-x-x-x-x-x-x-x-x-x-x-x-x-x-x-
d-7-7-7-7-7-7-7-7-7-7-7-7-4-4-4-4-5-5-5-5-5-5-5-3-3-3-3-3-3-3-3-3-
a-----------------------------------------------------------------
d-----------------------------------------------------------------
Interlude:
gtr. 1
e-----------------------------------------------------------------
b-----------------------------------------------------------------
g-----------------------------------------------------------------
d-5-5-5-5-------------------------5-5-5---------------------------
a-3-3-3-3---3-3-0---0-0-0-0-0-0-0-3-3-3-3---0-0-0---0-0-0-0-0-0-0-
d-----------3-3-0---0-0-0-0-0-0-0-------3---0-0-0---0-0-0-0-0-0-0-
gtr. 2
e-----------------------------------------------------------------
b-----------------------------------------------------------------
g-------------------7-7-9-9-12-12-------------------7-7-9-9-7-7---
d-------------------x-x-x-x--x--x-------------------x-x-x-x-x-x---
a-------------------5-5-7-7-10-10-------------------5-5-7-7-5-5---
d-----------------------------------------------------------------
gtr. 1
e-----------------------------------------------------------------
b-----------------------------------------------------------------
g-----------------------------------------------------------------
d-5-5-5---------------------------5-5-5---------------------------
a-3-3-3-3---3-3-0---0-0-0-0-0-0-0-3-3-3-3---3--3--8---0--0--0-----
d-------3---3-3-0---0-0-0-0-0-0-0-------3---3--3--8---0--0--0--0--
gtr. 2
e-----------------------------------------------------------------
b-----------------------------------------------------------------
g-------------------7-7-9-9-12-12---------------------------------
d-------------------x-x-x-x--x--x---------------------------------
a-------------------5-5-7-7-10-10----------------------0--0--0----
d------------------------------------------------------0--0--0--0-
that’s about all
just repeat parts
trevor jones
[email protected]





Ваше мнение



Капча