Nobody Told Me-Puddle Of Mudd
Come Clean
Drop Db:
Db Ab Db Gb Bb Eb
Intro:
gtr. 1
e-----------------------------------------------------------------
b-----------------------------------------------------------------
g-----------------------------------------------------------------
d-0---------------------------------------------------------------
a-0---------------------------------------------------------------
d-0---------------------------------------------------------------
gtr. 1
e-----------------------------------------------------------------
b-----------------------------------------------------------------
g-----------------------------------------------------------------
d-0---------------------------------------------------------------
a-0---------------------------------------------------------------
d-0---------------------------------------------------------------
gtr. 2
e-----------------------------------------------------------------
b-8----------8----------------------------------------8---8---8---
g---------7-----------------------------------------7---7---7---7-
d-----------------------------------------------------------------
a-----------------------------------------------------------------
d-----------------------------------------------------------------
gtr. 1
e-----------------------------------------------------------------
b-----------------------------------------------------------------
g-----------------------------------------------------------------
d-0---------------------------------------------------------------
a-0---------------------------------------------------------------
d-0---------------------------------------------------------------
gtr. 2
e-----------------------------------------------------------------
b-8----------8------------------------------------------------8---
g---------7-------------------------------------------------7---7-
d-----------------------------------------------------------------
a-----------------------------------------------------------------
d-----------------------------------------------------------------
gtr. 1
x2
e-----------------------------------------------------------------
b-----------------------------------------------------------------
g-----------------------------------------------------------------
d-----------------------------------------------------------------
a-----------------------------------------------------------------
d-0---------------------------------------------------------------
Riff A: gtr. 2
x2
e-----------------------------------------------------------------
b----10-----10-----10------10------8-----8------9-----9-------9---
g-/7------7------7-------7----7-/7-----7------7-----7-------7---7-
d-----------------------------------------------------------------
a-----------------------------------------------------------------
d-----------------------------------------------------------------
gtr. 1
e-----------------------------------------------------------------
b-----------------------------------------------------------------
g-----------------------------------------------------------------
d-----------------------------------------------------------------
a-0--------------------------------------6-----------5------------
d-0--------------------------------------6-----------5------------
Riff B: gtr. 2
e-----------------------------------------------------------------
b----10----10----10/11---11-10--10---10----8----8----9----9----9--
g-/7-----7-----7-------7-----------7----/7----7----7----7----7---7
d-----------------------------------------------------------------
a-----------------------------------------------------------------
d-----------------------------------------------------------------
gtr. 1
e-----------------------------------------------------------------
b-----------------------------------------------------------------
g-----------------------------------------------------------------
d-----------------------------------------------------------------
a-0--------------------------------------6-----------5------------
d-0--------------------------------------6-----------5------------
Riff B: gtr. 2
e-----------------------------------------------------------------
b----10----10----10/11---11-10--10---10----8----8----9------------
g-/7-----7-----7-------7-----------7----/7----7----7--------------
d-----------------------------------------------------------------
a-----------------------------------------------------------------
d-----------------------------------------------------------------
Verse 1: no gtr
Chorus: Riff A x2
Interlude: Riff B
Verses 2&3:
e-----------------------------------------------------------------
b-----------------------------------------------------------------
g-----------------------------------------------------------------
d-0-0-0-0-0-0-0-0-0-0-0-0-6-6-6-6-6-6-6-5--5-5-5-5-5--5-5---------
a-0-0-0-0-0-0-0-0-0-0-0-0-6-6-6-6-6-6-6-5--5-5-5-5-5--5-5---------
d-0-0-0-0-0-0-0-0-0-0-0-0-6-6-6-6-6-6-6-5--5-5-5-5-5--5-5---0-0---
Bridge: pm
x3
e-----------------------------------------------------------------
b-----------------------------------------------------------------
g-----------------------------7-5-----------------------------7-5-
d-7-7-7-7-5-5-5-0-5-5---5-5---5-3-7-7-7-5-5-5-5-0-5-5---5-5---5-3-
a-5-5-5-5-3-3-3-0-3-3-0-3-3-0-----5-5-5-3-3-3-3-0-3-3-0-3-3-0-----
d-----------------------------------------------------------------
e-----------------------------------------------------------------
b-----------------------------------------------------------------
g-----------------------------7-5-7-7-7-5-----5---5-5---5-----75-
d-7-7-7-7-5-5-5-0-5-5---5-5---5-3-7-7-7-5-----5---5-5---5-----53-
a-5-5-5-5-3-3-3-0-3-3-0-3-3-0-----5-5-5-3---0-3-0-3-3-0-3---0-----
d-----------------------------------------------------------------
that’s about all
trevor jones
[email protected]





Ваше мнение



Капча