Never Change-Puddle Of Mudd
Come Clean
gtr. 1&4
Db Ab Db Gb Bb Db
gtr. 2
Db Ab Db Gb Bb Eb
gtr. 3&5
Eb Ab Db Gb Bb Eb
Intro: gtr. 1 / chorus effect
d------0-------0-----0----0--0--0----0--0------
b------0----0--0-----3----3--3--3----3--3------
g------0----0--0--0--2----2--2--2----2--2--0---
d-2----2----2--2--0--0----0--0--0----0--0--0--- x2
a-2---------2-----0----------------------------
d-2--------------------------------------------
Fig. 1 (gtr. 1)
d------0-------0-----0----0--0--0----0--0------
b------0----0--0-----3----3--3--3----3--3------
g------0----0--0--0--2----2--2--2----2--2--0---
d-2----2----2--2--0--0----0--0--0----0--0--0---
a-2---------2-----0----------------------------
d-2--------------------------------------------
Fig 1a.
e----------------------------------------------
b----------------------------------------------
g----------------------------------------------
d----------------------------------------------
a----------------------------------------------
d-2----2----2--2--2--0----0--0--0----0--0--0---
gtr. 1
d------0-------0-----0----0--0--0----0--0------
b------0----0--0-----3----3--3--3----3--3------
g------0----0--0--0--2----2--2--2----2--2--0---
d-2----2----2--2--0--0----0--0--0----0--0--0---
a-2---------2-----0----------------------------
d-2--------------------------------------------
gtr. 2
e----------------------------------------------
b----------------------------------------------
g----------------------------------------------
d----------------------------------------------
a----------------------------------------------
d-2----2----2--2--2--0---/4--2--0----0--0--0---
Verses: Fig 1 & 1a. x8
Chorus:
Fig 2a. (gtr. 3)
pm
e-------5-------5-------5-------5-------5-------5-------5-------5-
b-------5-------5-------5-------5-------5-------5-------5-------5-
g-5-5---5-----5-5-5-5---5-----5-5-5-5---5-----5-5-5-5---5-----5-5-
d-7-7-7-7-7-7-7-7-7-7-7-7-7-7-7-7-7-7-7-7-7-7-7-7-7-7-7-7-7-7-7-7-
a-0---0---0-------0---0---0-------0---0---0-------0---0---0-------
e-----------------------------------------------------------------
Fig. 2 (gtr. 2)
e-----------------------------------------------------------------
b-----------------------------------------------------------------
g-5-5-5-5-5-5-5-5-5-5-5-5-5-5-5-5-5-5-5-5-5-5-5-5-5-5-5-5-5-5-5-5-
d-2-2-2-2-2-2-2-3-3-3-3-3-3-3-3-3-4-4-4-4-4-4-4-3-3-3-3-3-3-3-3-3-
a-----------------------------------------------------------------
d-----------------------------------------------------------------
Bridge:
gtr. 3
e-----------------------------------------------------------------
b-----------------------------------------------------------------
g-5---5---5-5-5-8---8-8-8-8-8-8-7-7-7-7-7-7-7-7-7-7-7-7-7-7-8-8-5-
d-5---5---5-5-5-8---8-8-8-8-8-8-7-7-7-7-7-7-7-7-7-7-7-7-7-7-8-8-5-
a-3---3---3-3-3-6---6-6-6-6-6-6-5-5-5-5-5-5-5-5-5-5-5-5-5-5-6-6-3-
e-3---3---3-3-3-6---6-6-6-6-6-6-5-5-5-5-5-5-5-5-5-5-5-5-5-5-6-6-3-
gtr. 2
e-----------------------------------------------------------------
b-----------------------------------------------------------------
g-5---5---5-5-5-8---8-8-8-8-8-8-7-7-7-7-7-7-7-7-7-7-7-7-7-7-8-8-5-
d-5---5---5-5-5-8---8-8-8-8-8-8-7-7-7-7-7-7-7-7-7-7-7-7-7-7-8-8-5-
a-3---3---3-3-3-6---6-6-6-6-6-6-5-5-5-5-5-5-5-5-5-5-5-5-5-5-6-6-3-
d-----------------------------------------------------------------
gtr. 3
e-----------------------------------------------------------------
b-----------------------------------------------------------------
g-5---5---5-5-5-8---8-8-8-8-8-8-7-7-7-7-7-7-7-7-7-7-7-7-7-7-7-7-7-
d-5---5---5-5-5-8---8-8-8-8-8-8-7-7-7-7-7-7-7-7-7-7-7-7-7-7-7-7-7-
a-3---3---3-3-3-6---6-6-6-6-6-6-5-5-5-5-5-5-5-5-5-5-5-5-5-5-5-5-5-
e-3---3---3-3-3-6---6-6-6-6-6-6-5-5-5-5-5-5-5-5-5-5-5-5-5-5-5-5-5-
gtr. 2
e-----------------------------------------------------------------
b-----------------------------------------------------------------
g-5---5---5-5-5-8---8-8-8-8-8-8-7-7-7-7-7-7-7-7-7-7-7-7-7-7-7-7-7-
d-5---5---5-5-5-8---8-8-8-8-8-8-7-7-7-7-7-7-7-7-7-7-7-7-7-7-7-7-7-
a-3---3---3-3-3-6---6-6-6-6-6-6-5-5-5-5-5-5-5-5-5-5-5-5-5-5-5-5-5-
d-----------------------------------------------------------------
Fig. 1 & 1a x4 w/
gtr. 4
d-2-2-2-2-2-2-2-2-2-2-2-2-2-2-2-2-2-2-2-2-2-2-2-0-0-0-0-0-0-0-0-0-
b-3-3-3-3-3-3-3-3-3-3-3-3-3-3-3-3-3-3-3-3-3-3-3-3-3-3-3-3-3-3-3-3-
g-----------------------------------------------------------------
d-----------------------------------------------------------------
a-----------------------------------------------------------------
d-----------------------------------------------------------------
gtr. 4
d-2-2-2-2-2-2-2-2-2-2-2-2-2-2-2-2-2-2-2-2-2-2-2-0-0-0-0-0-0-0-0-0-
b-3-3-3-3-3-3-3-3-3-3-3-3-3-3-3-3-3-3-3-3-3-3-3-3-3-3-3-3-3-3-3-3-
g-----------------------------------------------------------------
d-----------------------------------------------------------------
a-----------------------------------------------------------------
d-----------------------------------------------------------------
gtr 5. w/ wah
e-----------------------------------------------------------------
b-----------------------------------------------------------------
g-4---4---4-4-4-2---2----2-----2-2-2--4---4---4-4-4-2---2----2--2-
d-----------------------------------------------------------------
a-----------------------------------------------------------------
e-----------------------------------------------------------------
Outro: Fig. 1 & 1a
that’s all
trevor jones
[email protected]





Ваше мнение



Капча