This is my first tab, and I am Tabbing a Puddle of Mudd song so here goes.
Heel over Head -Puddle of Mudd, album, Life on Display

Standard tuning
Tabbed by cheyenne
email me at: [email protected]

e/---------------------------------------------------/
b/-444444444444--------------------------------------/
g/-444444444444-6-77-6-4444444444444444--------------/
d/-222222222222-6-77-6-4444444444444444--------------/
e/--------------4-55-4-2222222222222222--------------/

This is what it does for most of the song, except for the pre chorus, which goes:
e/---------------------------------------------------/
b/---------------------------------------------------/
g/---4-----------------------------------------------/
d/-6-4-----------------------------------------------/
a/-6-2-----------------------------------------------/
e/-4-------------------------------------------------/
for the pre chorus, it just alternates these chords strumming them,
then just before the chorus, it strums the full b chord which is:

e/---------------------------------------------------/
b/-4-------------------------------------------------/
g/-4-------------------------------------------------/
d/-4-------------------------------------------------/
a/-2-------------------------------------------------/
e/---------------------------------------------------/
and thats just about it, except for the bridge which is just the starting,
just muted, and ya, i hope you have fun with this song





Ваше мнение



Капча