This is just my version of the intro. I think this version is much easier then other versions i have seen. And it sounds much more like the "SONG". .I stole the first part from that other persons tab, sorry dude. So here goes.
E||---1--0--1--0---1--0--1--0----|
B||---3--3--3--3---1--0--1--0----|
G||---2--2--2--2---0--0--0--0----|
D||------------------------------|
A||------------------------------|
E||------------------------------|
Listen to the song and figure out the strumming that sounds best to you.
I made like a 4 string version to the intro you can try it if you want. It's
almost the same thing. But i like usin this version cuz im not that good and
i slip in the d string alot. You can play it on the 2nd or 3rd fret whichever
sounds best to you. This is again just the intro. Again figure out the strumming
that sounds best to you.
E||----1----0----1----0-------1--0--1--0-----|
B||----3----3----3----3-------1--0--1--0-----|
G||----2----2----2----2-------0--0--0--0-----|
D||---2/3--2/3--2/3--2/3------0--0--0--0-----|
A||------------------------------------------|
E||------------------------------------------|
key: / = or
TOOL RULES!!!!!





Ваше мнение



Капча