Artist: Puddle of Mudd
Title: Control
Album: Come Clean
Author: T ([email protected])
Tuning: Drop Db (Db-Ab-Db-Gb-Bb-Eb)
Intro/Chorus (Gtr. 1)
p: pull-on
h: hammer off
/: slide up
( ): palm mute
Eb|------------------------------------------------|
Bb|------------------------------------------------|
Gb|-------------------------5-5-5-5-5--------------|
Db|--0-0-0-0-0-3-3-3-3-3-2--5-5-5-5-5-5-5-5-5-5-3--|
Ab|--0-0-0-0-0-3-3-3-3-3-2--3-3-3-3-3-5-5-5-5-5-3--|
Db|--0-0-0-0-0-3-3-3-3-3-2------------5-5-5-5-5-3--|
Intro/Chorus (Gtr. 2)
Eb|-----------------------------------------
Bb|-----------------------------------------
Gb|---------------------9h10-10-10-10/12----
Db|--10h12-12-12-12p10----------------------
Ab|-----------------------------------------
Db|-----------------------------------------
Eb|----------------------------------------------
Bb|----------------------------------------------
Gb|----------------------------------------------
Db|--12h14-14-14-14p12--10-10-10-10-10p12-12-12--
Ab|----------------------------------------------
Db|----------------------------------------------
Eb|--------------------------------------
Bb|--------------------------------------
Gb|---------------------9-10-12-10-9-12--
Db|--10h12-12-12-12p10-------------------
Ab|--------------------------------------
Db|--------------------------------------
Eb|----------------------------------------------|
Bb|----------------------------------------------|
Gb|----------------------------------------------|
Db|--12-12-12-12-12-12-12-12--10-10-10-10-10-10--|
Ab|----------------------------------------------|
Db|----------------------------------------------|
Verse
Eb|-------------------------------------------------------
Bb|-------------------------------------------------------
Gb|----------------------------------9----10----9----9-9--
Db|--12----12-12----------10-9---------------12-----------
Ab|-------------------------------12----------------------
Db|--------------12h14------------------------------------
Eb|----------------------------------------------------|
Bb|----------------------------------------------------|
Gb|--10-10-10-10-10-10-10-10/-12-12-12-12-12-12-12-12--|
Db|--x--x--x--X--x--x--x--x-/--x--x--x--x--x--x--x--x--|
Ab|--8--8--8--8--8--8--8--8-/-10-10-10-10-10-10-10-10--|
Db|----------------------------------------------------|
Chorus (Gtr.1): Same as intro
Chorus (Gtr. 2)
Eb|------------------------------------------------------
Bb|------------------------------------------------------
Gb|------------------------------------------------------
Db|--10h12-12-12-12-12-12-12-12-12-12-12-12-12-12-12-12--
Ab|------------------------------------------------------
Db|------------------------------------------------------
Eb|-----------------------------------------------
Bb|-----------------------------------------------
Gb|--------------------------12-12-12-12----------
Db|--12h14-14-14-14-14-14-14-------------9-9-9-9--
Ab|-----------------------------------------------
Db|-----------------------------------------------
Eb|---------------------------------------------------
Bb|---------------------------------------------------
Gb|---------------------------------------------------
Db|--14-14-14-14-14-14-14-14-14-14-14-14-14-14-14-14--
Ab|---------------------------------------------------
Db|---------------------------------------------------
Eb|------------------------------------|
Bb|------------------------------------|
Gb|------------------------------------|
Db|--12-12-12-12-12-12-12-12-12-12-12--|
Ab|------------------------------------|
Db|------------------------------------|
Interlude
Eb|----------------------|
Bb|------------10----15--|
Gb|------------x-----x---|
Db|--0----0----7-----12--|
Ab|--0----0--------------|
Db|--0----0--------------|
Bridge (Gtr. 2)
Eb|------------------------------------------
Bb|------------------------------------------
Gb|------------------------------------------
Db|--(3-5-5-5-5-5-5-5-5-5-5-5-8-8-8-8)-------
Ab|------------------------------------------
Db|------------------------------------------
Bridge (Gtr. 1)
Eb|--------------------------------------------------|
Bb|--------------------------------------------------|
Gb|--5/5---------------------------5/7-7--5/7-7--10--|
Db|--3/7-Do this a few times then--3/5-5--3/7-7--10--|
Ab|--3/5---------------------------3/5-5--3/5-5--8---|
Db|--------------------------------------------------|





Ваше мнение



Капча