Every tab I have seen of this song is so damn wrong. Here is the right way to play it.

Guitar 1:

E---------------------------------------------------
B---------------------------------------------------
G----------------------------7-7-7-7----------------
D-2-2-2-2---5-5-5-5-5--4-----7-7-7-7---7-7-7-7-7--5-
A-2-2-2-2---5-5-5-5-5--4-----5-5-5-5---7-7-7-7-7--5-
E-0-0-0-0---3-3-3-3-3--2---------------5-5-5-5-5--3-

Guitar 2:

E--------------------------------------------------------
B--------------------------------------------------------
G-9-9-9-9---12-12-12-12-12--11----7-7-7-7----------------
D-9-9-9-9---12-12-12-12-12--11----7-7-7-7---7-7-7-7-7--5-
A-7-7-7-7---10-10-10-10-10--9-----5-5-5-5---7-7-7-7-7--5-
E-------------------------------------------5-5-5-5-5--3-





Ваше мнение



Капча