Band: Puddle Of Mudd
Song: Cloud 9
CD: Life On Display
Publisher: Flawless Records, Interscope Records

Intro/Chorus
G|------|----------------------------|
D|------|---------------------777777-|
A|------|-9-6-66-9-6-66-9-6-66-------|
E|------|----------------------------|

Verse 1
G|-------------|
D|-------------|
A|---------3-0-|
E|-0-0-2-3-----|

Verse 2
G|---------------------------------------------|
D|-----------4-3-----4-3-----------333-1111111-|
A|-333333333----3333----2222222222-------------|
E|---------------------------------------------|

G|---------------------------------|
D|--------555-------555--------555-|
A|-5555555---5555555---55555555----|
E|---------------------------------|

G|--------------------------------|
D|--------------------------------|
A|-7777777-9999999-11111111111111-|
E|--------------------------------|

Interlude
G|----------------------------|
D|----------------------------|
A|-----------3-0--------------|
E|-3-3-0-2-3-----2-2-0-1-2-0~-|

Note: Those are 11's, not 1's!

Tabbed by Jess (Aka norin)





Ваше мнение



Капча