PUDDLE OF MUDD - BLURRY
*=natural harmonic
/=slide
a=play the chord arpeggio
ok, this was pretty hard to tab, so don’t hate me if it sucks. you’ll see I
put a Guitar 3 in here..no, there are not actually three guitarists, they
recorded over themselves, so don’t annoy me about that. listen to the song
for timing and placement, cause this can be confusing. also, you MUST tune
to 1/2 step for harmonics to sound right
Guitar 1 - Acoustic/Clean
Riff A
eb-----------------------------------------------------------------------
Bb-----------------------------------------------------------------------
Gb-----------------------------------------------------------------------
Db-5----5-------5-------5--------5-7------7-------7-------7-------7------
Ab--3-3—--3-3-3——-3-3-3—--3-3-3-----/5-5—---5-5-5—--5-5-5—–-5-5-5--------
Eb-----------------------------------------------------------------------
Riff A (continued)
eb------------------------------------------------------------------
Bb------------------------------------------------------------------
Gb------------------------------------------------------------------
Db-9-----9-------9--------9-------9-9----9-------9-------9-------9--
Ab--/7-7—--7-7-7----7-7-7—--7-7-7—–--7-7—–-7-7-7—–-7-7-7—–-7-7-7----
Eb------------------------------------------------------------------
Guitar 2 - Acoustic/Clean (played through the whole song)
Riff A
eb|--------------------------------------------------
Bb|-----------------5*----------------5*-------------
Gb|--------5*----------5*----5*----------5*----5*----
Db|-----5*----5*----------------5*----------------5*-
Ab|--3-----------3--------3--------3--------3--------
Eb|--------------------------------------------------
eb|--------------------------------------------------
Bb|-----------------5*----------------5*-------------
Gb|--------5*----------5*----5*----------5*----5*----
Db|-----5*----5*----------------5*----------------5*-
Ab|--5-----------5--------5--------5--------5--------
Eb|--------------------------------------------------
eb|--------------------------------------------5*----
Bb|-----------------5*----------------5*----------5*-
Gb|--------5*----------5*----5*----------5*----------
Db|-----5*----5*----------------5*-------------------
Ab|--7*----------7*-------7*-------7*-------7*-------
Eb|--------------------------------------------------
eb|--------------------------------------------5*----
Bb|-----------------5*----------------5*----------5*-
Gb|--------5*----------5*----5*----------5*----------
Db|-----5*----5*----------------5*-------------------
Ab|--7*----------7*-------7*-------7*-------7*-------
Eb|--------------------------------------------------
Guitar 3 - Distortion(w/ delay effect)played at last 4 measures of main Riff A
Riff A
eb-17-15---—17-19–---17-19----(17-15)-
Bb------------------------------------
Gb------------------------------------
Db------------------------------------
Ab------------------------------------
Eb------------------------------------
Guitar 1 - Acoustic/Clean
Riff B - (each chord 12x-15x)
eb----------------
Bb----------------
Gb-5--7--9--9-----
Db-5--7--9--9-----
Ab-3--5--7--7-----
Eb----------------
Guitar 3 - Distortion
Riff B (Starts at ‘you can be my...’)
eb-----------------------------
Bb-----------------------------
Gb---------------------------0-
Db-0-0--3-2--0--0-0--3-2h3-----
Ab-----------------------------
Eb-----------------------------
Guitar 1 - Acoustic/Clean
Pre-Chorus
Play Riff B
Guitar 3 - Distortion
Pre-Chorus
E--------------------
B--------------------
G-4/6/8/10/-11-11-11-
D-x-x-x-x----x--x--x-
A-2/4/6/8/---9--9--9-
E--------------------
Guitar 1&3 - Distortion
Chorus - (each chord 12x-15x)
eb-----------------
Bb-----------------
Gb-/5–/7–/9-9-----
Db-/5–/7–/9-9-----
Ab-/3–/5–/7-7-----
Eb-/3-/5-/7-7-----
Guitar 1 - Acoustic/Clean
Interlude
Play Riff B
Guitar 3 - Distortion
Interlude
eb|--------------------------------------------------
Bb|--------------------------------------------------
Gb|--10/12--12/--10/12\11---12--12/------------------
Db|--------------------------------------------------
Ab|---8/10--10/---8/10\9----10--10/------------------
Eb|--------------------------------------------------
Guitar 3 - Distortion(auto-wah effect)
(Guitar 1 plays Riff B in background)
Solo-like Thing
eb|---------------------------------------------------------------------------------
Bb|-----8-8-----------------8-8-----------------9-9---------------------------------
Gb|-7-9-----9--9-7--9---7-9-----9--9-7--9---7-9-----9-9--7-9---9-7--9--7--9--7--7---
Db|---------------------------------------------------------------------------------
Ab|---------------------------------------------------------------------------------
Eb|---------------------------------------------------------------------------------
Guitar 2 - all other guitars ring out
Outro
eb--7*------7*-5*-------------------------------------------------------------
Bb----7*---------5*--7*-------------------------------------------------------
Gb------5*---------5*-----------------------a9--------------------------------
Db--------5*--------------------------------a9--------------------------------
Ab------------------------------------------a7--------------------------------
Eb----------------------------------------------------------------------------





Ваше мнение



Капча