Email:[email protected]

Tuning:C
intro
e|---------------------------------------------------------------------------|
B|---------------------------------------------------------------------------|
G|---------------------------------------------------------------------------|
D|---------------------------------------------------------------------------|
A|---------------------------------------------------------------------------|
E|-5-5-5-5-5-3-3-3(x10)--8-8-8-8-8-8-8-8-3-3-3-3-3-3-3-----------------------|
verse
e|---------------------------------------------------------------------------|
B|---------------------------------------------------------------------------|
G|---------------------------------------------------------------------------|
D|-5------3-------------8------3--------------------------------------------|
A|-5(x5)--3(x3)--(x10)--8(x8)--3(x7)----------------------------------------|
E|-5------3-------------8------3--------------------------------------------|
chorus
e|---------------------------------------------------------------------------|
B|---------------------------------------------------------------------------|
G|-8-----5-------------------------------------------------------------------|
D|-8(x8)-5(x8)-5------3------------------------------------------------------|
A|-6-----3-----5(x5)--3(x3)--------------------------------------------------|
E|-------------5------3------------------------------------------------------|
Bridge (not sure about this)
e|---------------------------------------------------------------------------|
B|---------------------------------------------------------------------------|
G|-8-----5-----8------------------8------------------------------------------|
D|-8(x8)-5(x8)-8(x8)--8-----------8(x3)-8------------------------------------|
A|-6-----3-----6------8(x8)-(x3)--6-----8(x3)---(x5)-------------------------|
E|--------------------8-----------------8------------------------------------|

thats it as far as i know. enjoy





Ваше мнение



Капча