Basement-Puddle Of Mudd
Come Clean
Eb Tuning:
Eb Ab Db Gb Bb Eb
Intro:
e-0-0-0-0----0-0-0-0-0-0-0-0-0-0-0-0-0-0----0-0-0-0-0-0-0-0-0-0-0-
b-5-5-5-5----5-5-5-5-5-5-5-5-5-5-5-5-5-5----5-5-5-5-5-5-5-5-5-5-5-
g-----------------------------------------------------------------
d-----------------------------------------------------------------
a-----------------------------------------------------------------
e-----------------------------------------------------------------
gtr. 1
e-0-0-0-0----0-0-0-0-0-0-0-0-0-0-0-0-0-0----0-0-0-0-0-0-0-0-0-0-0-
b-5-5-5-5----5-5-5-5-5-5-5-5-5-5-5-5-5-5----5-5-5-5-5-5-5-5-5-5-5-
g-----------------------------------------------------------------
d-----------------------------------------------------------------
a-----------------------------------------------------------------
e-----------------------------------------------------------------
gtr. 2
e-0-0-0-0----0-0-0-0-0-0-0-0-0-0-0-0-0-0----0-0-0-0-0-0-0-0-0-0-0-
b-0-0-0-0----0-0-0-0-0-0-0-0-0-0-0-0-0-0----0-0-0-0-0-0-0-0-0-0-0-
g-9-9-9-9----9-9-9-9-9-9-9-9-9-9-9-9-9-9----9-9-9-9-9-9-9-9-9-9-9-
d-------------------------------------------9-9-9-9-9-9-9-9-9-9-9-
a-------------------------------------------7-7-7-7-7-7-7-7-7-7-7-
e-----------------------------------------------------------------
gtr. 1, 2 & 3
e-0-----------------
b-0-8-8-8-8-8--8---
g-9-7-7-7-7-7--7---
d-9-----------------
a-7-----------------
e-------------------
Fig. 1
e-----------------------------------------------------------------
b-------------------------3-3-3-3-------------------------3-3-3-3-
g-------------------------2-2-2-2-------------------------2-2-2-2-
d-------------------------0-0-0-0-------------------------0-0-0-0-
a-2-2-2---------------------------2-2-2---------------------------
e-0-0-0-3~~~-3-3-3-3b-3-3---------0-0-0-3~~~-3-3-3-3~-3-3---------
Verses: w/ flanger
e-----------------------------------------------------------------
b-----------------------------------------------------------------
g-------9-------------11---11---11---9--------------7---7---7-----
d----9-------9------9----9----9----9--------------9---9---9---9---
a-----------------------------------------------------------------
e-----------------------------------------------------------------
e-----------------------------------------------------------------
b-----------------------------------------------------------------
g-9---------------11---11---11---9-----11-------9---------7---7/9-
d---------------9----9----9----9---9-9----9-9-9---9-9-9-9---7-7/9-
a-----------------------------------------------------------------
e-----------------------------------------------------------------
gtr. 1
e-----------------------------------------------------------------
b-----------------------------------------------------------------
g---------9-----9-----9---11---12-----------9-----9---9-911-911-9-
d-9-9-9-9---9-9---9-9---9----9----9-9-9-9-9---9-9---9-9-9-9-9-9-9-
a-----------------------------------------------------------------
e-----------------------------------------------------------------
gtr. 2
e-0-0-0-0-0-0-0-0-0-0-0-0-0-0-0-0-0-0-0-0-0-0-0-0-0-0-0-0-0-0-0-0-
b-5-5-5-5-5-5-5-5-5-5-5-5-5-5-5-5-5-5-5-5-5-5-5-5-5-5-5-5-5-5-5-5-
g-----------------------------------------------------------------
d-----------------------------------------------------------------
a-----------------------------------------------------------------
e-----------------------------------------------------------------
gtr. 1
e-----------------------------------------------------------------
b-----------------------------------------------------------------
g---------9-----9-----9---11---12-9-9-9-9-9-9-9-9-9-9-9-9-9-9-9-9-
d-9-9-9-9---9-9---9-9---9----9----9-9-9-9-9-9-9-9-9-9-9-9-9-9-9-9-
a-----------------------------------------------------------------
e-----------------------------------------------------------------
gtr. 2
e-0-0-0-0-0-0-0-0-0-0-0-0-0-0-0-0-0-0-0-0-0-0-0-0-0-0-0-0-0-0-0-0-
b-5-5-5-5-5-5-5-5-5-5-5-5-5-5-5-5-5-5-5-5-5-5-5-5-5-5-5-5-5-5-5-5-
g-----------------------------------------------------------------
d-----------------------------------------------------------------
a-----------------------------------------------------------------
e-----------------------------------------------------------------
Chorus:
e-----------------------------------------------------------------
b-0---------------------------------7-----------------------------
g-1---------------------------------7-----7-7---7---6-6-6-6-5-5---
d-2---------2-2--5---5-5-5-5-5-5-5--7-----7-7---7---6-6-6-6-5-5---
a-2---------2-2--5---5-5-5-5-5-5-5--5-----5-5---5---4-4-4-4-3-3---
e-0---------0-0--3---3-3-3-3-3-3-3------------------------------0-
e-----------------------------------------------------------------
b-----------------------------------3-----------------------------
g-----------------------------------2-----------2-2-2-2-2---------
d-2---------2-2--5---5-5-5-5-5-5-5--0-----------2-2-2-2-2-5-------
a-2---------2-2--5---5-5-5-5-5-5-5--------------0-0-0-0-0-5-------
e-0---------0-0--3---3-3-3-3-3-3-3------------------------3-------
Bridge:
x4
e-----------------------------------------------------------------
b-9---9---9-9-9-9---9-9-9-9-9-9-7-7---7---7-7-7-7-5-5-5-5-5-5-5-5-
g-9---9---9-9-9-9---9-9-9-9-9-9-7-7---7---7-7-7-7-5-5-5-5-5-5-5-5-
d-9---9---9-9-9-9---9-9-9-9-9-9-7-7---7---7-7-7-7-5-5-5-5-5-5-5-5-
a-7---7---7-7-7-7---7-7-7-7-7-7-5-5---5---5-5-5-5-3-3-3-3-3-3-3-3-
e-----------------------------------------------------------------
e-----------------------------------------------------------------
b-9---9---9-9-9-9---9-9-9-9-9-9-7-7---7---7-7-7-710101010101010-9-
g-9---9---9-9-9-9---9-9-9-9-9-9-7-7---7---7-7-7-7-9-9-9-9-9-9-9-9-
d-9---9---9-9-9-9---9-9-9-9-9-9-7-7---7---7-7-7-7-7-7-7-7-7-7-7-9-
a-7---7---7-7-7-7---7-7-7-7-7-7-5-5---5---5-5-5-5---------------7-
e-----------------------------------------------------------------
Solo:
E5/B D5/A C5/G
e-----------------------------------------------------------------
b-----------------------------------------------------------------
g-----7--9---7------7-9---9/11---7----7-9----9-7--75-5-54-4-----
d-9-------------9---------------------------------------------5-5-
a-----------------------------------------------------------------
e-----------------------------------------------------------------
E5/B D5/A A5/E
e-----------------------------------------------------------------
b-----------------------------------------------------------------
g-----7--9---7------7-9---9/11---7---7-9---9-7---1414141414141414-
d-9---------------------------------------------------------------
a-----------------------------------------------------------------
e-----------------------------------------------------------------
hold bend
e-----------------------------------------------------------------
b-12--------------------------------------------------------------
g-14b~~~~~~~~~~~~~~~~~~~~~~~~~~~~~~~~~~~~~~~~~~~~~~---------------
d-----------------------------------------------------------------
a-----------------------------------------------------------------
e-----------------------------------------------------------------
that’s all
trevor jones
[email protected]





Ваше мнение



Капча