Artist: Puddle of Mudd
Album: Life On Display
Track: Away From Me
Tuning: Standard E

Intro
E-------------------------------------------------|
B-------------66-66-------------------77-77-66-66-|
G-55-55-55-55-------66-66-55-55-55-55-------------|
D-------------------------------------------------|
A-------------------------------------------------|
E-------------------------------------------------|

E-------------------------------------------------|
B-------------66-66-------------------------------|
G-55-55-55-55-------66-66-55-55-55-55-55-55-55-55-|
D-------------------------------------------------|
A-------------------------------------------------|
E-------------------------------------------------|
Play into Intro to Verse Bridge

Intro to Verse Bridge
E-------------------|
B-------------------|
G-------------------|
D-------7---7---7---|
A-9-9-7-7-7-7-7-7-7-|
E-7-7-5---5---5---5-|
Play About 4 Times

Verse: Sounds as if it's played mainly on bass, but I can't make out the exact riff

Chorus Power Chords
E-------|
B-------|
G-6-4---|
D-6-4-4-|
A-4-2-4-|
E-----2-|
Play them according to the chorus

Bridge Power Chords
E-------|
B-------|
G---4-6-|
D-4-4-6-|
A-4-2-4-|
E-2-----|
Play them according to the bridge

Intro
Intro to Verse Bridge
Verse
Chorus
Verse 2
Chorus - Play until the song ends
And for the shriek at the end, put your guitar directly in front of your amp to produce

feedback





Ваше мнение



Капча