Play fast and it will sound good, if you play the ghost note MUTE IT
Tabbed by Darius
INTRO:
e|-------------------------------------------------------|
B|---x-x-x-x-x-x---x-------------------------------x-----|
G|-7-7-7-7-7-7-7-7-7---6h7p6-7---x-x-x-x-x----x--7-7-7---|
D|-7-7-7-7-7-7-7-7-7-7-------7-5-5-5-5-5-5-5-(5)-7-7-7-7-|
A|-5-5-5-5-5-5-5-5-5-7-------5-5-5-5-5-5-5-5-(5)-5-5-5-7-|
E|-----------------------------3-3-3-3-3-3-3-(3)---------|
e|-------------------------------------------------------|
B|---x-x-x-x-x-x---x-------------------------------x-----|
G|-7-7-7-7-7-7-7-7-7---6h7p6-7---x-x-x-x-x----x--7-7-7---|
D|-7-7-7-7-7-7-7-7-7-7-------7-5-5-5-5-5-5-5-(5)-7-7-7-7-|
A|-5-5-5-5-5-5-5-5-5-7-------5-5-5-5-5-5-5-5-(5)-5-5-5-7-|
E|-----------------------------3-3-3-3-3-3-3-(3)---------|




Ваше мнение



Капча