--------------------------------------------------------------------------
THE STATE LOTTERY - Propagandhi
---------------------------------------------------------------------------

>Means Strum

INTROx2
G]-----------------------------]
D]-----------------------------]
A]--5>-4-4-5>-4-4-5>-4-4-3>-4>-]
E]-----------------------------]

VERSEx2
G]------------]
D]------------]
A]-5>---------]
E]----8>-6>-8-]

VERSE2
G]--------------------]
D]--------------------]
A]-------1>-----3--4--]
E]-1>-3>----1>--------]

PRE-CHORUSx2
G]--------------------------]
D]--------------------------]
A]-5-------------1-----0--0-]
E]--------3-----------------]

CHORUSx4
G]------------------]
D]------------------]
A]-5-5-5-8----8>----]
E]---------6>----5>-]

OUTRO
G]--------------------------------------------]
D]--------------------------------------------]
A]-1>-3>-5>-1>-3>-5>-1>-3>-5>-1>-3>-5-5-3-3-5-]
E]--------------------------------------------]

----------------------------------------------------------------------------




Ваше мнение



Капча