-----------------------------------------------------------------------------
ONLY GOOD FACIST IS A DEAD FACIST PROPAGANDHI
-----------------------------------------------------------------------------
PROVIDED BY:
JEFF ([email protected])
FOR THE PUNK BASS TAB PAGE
www.geocities.com/SunsetStrip/Backstage/1711

INTRO
G]-----------------]
D]---4---5---6---7-]
A]-----------------]
E]-2---3---4---5---]

OTHER PART
G]------------------]
D]------------------]
A]-6-6------5-5-----]
E]------5---------4-]




Ваше мнение



Капча