--------------------------------------------------------------------------
RIO DE SAN ATLANTA, MANITOBA - Propagandhi
--------------------------------------------------------------------------

> MEANS STRUM

INTRO
G|----------------------------------------|
D|----------------------------------------|
A|----------------------------------------|x2
E|-5-5-5-5-5-1-1-1-5----------------------|

VERSE
G|----------------------------------------|
D|----------------------------------------|
A|----6>----------------------------------|x4
E|-5>-------------------------------------|

BRIDGE
G|----------------------------------------|
D|----------------------------------------|
A|----1>-3>---3-1----6>----1>-3>---3-1----|
E|-1>-------1-----5>----1>-------1-----5>-|

VERSE
G|----------------------------------------|
D|----------------------------------------|
A|-7>-6>----------------------------------|x4
E|----------------------------------------|

END
G|----------------------------------------|
D|----------------------------------------|
A|----1>-3>---3-1-------------------------|
E|-1>-------1-----------------------------|

----------------------------------------------------------------------------




Ваше мнение



Капча