From: [email protected]
Subject: Propagandhi tab
This is Propagandhi.crd off the cd "How to Clean Everything"
If there's a problem w/ how I transcribed it, please tell me what's wrong.
Propagandhi.crd from cd "How to clean everything"
=0D
SKA SUCKS
=0D
(ska upbeat, + listen for how many strums)
=0D
verse=3D
=0D
---10---------------
---10---8--10-----
---11---7---9------
----------------------
---------------------
---------------------
=0D
solo(notes are seperated, they're aren't played that fast together)
=0D
--------------------------------------------------------------------12-12=
-12-10-10-10-9-9-9--9-7h9h7-5-
=0D
-----------------------------------------------------------5-3-7---------=
--------------------------------------------
=0D
-------------------------------------------------------------------------=
-----------------------------------------------
=0D
---5-4-7-5-4-7--7-7-7-9-11-9-7-4-5-4-4-2-0-------------------------------=
--------------------------------
=0D
-------------------------------------------------------------------------=
-----------------------------------------------
=0D
-------------------------------------------------------------------------=
-----------------------------------------------
=0D
fast part=3DD5toG5toA5toG5toA5
=0D
bugs bunny outro=3D
=0D
-----------------------------\10-----
---10-10-10------------------------
-----------------9-11-----------------
------------------------12------------
-----------------------------------------
----------------------------------------
=0D
ANTI MANAFESTO:
=0D
intro=3D
=0D
---------------------------------------------------------------------
-----------
---------------------------------------------------------------------
-----------
----------------------------------------------------------------------
---12-----
---5-5-5------------------------------------------------------------
---12----
---5-5-5------------------------------------------------------------
---10-----
---3-3-3-3-3-3(




Ваше мнение



Капча