Tabbed by: Derek Lapp - [email protected]
Propagandhi - Purina Hall of Fame
*Warning: This song is not for beginners!!!!!!*
x = plam mute
/ = let ring
+ = slide
~ = hammer on
& = pull off
% = bend
Intro:
E-----------------------------------------------------------------------------------
B----------------------------------9---9-0/---------------------------------999-999--
G-3---3---3----------------------9---9--0/--3-x-3-x-3-------------666-13-66-999-999--
D-4---4---4-4+6+7-4+6+7-444-444-7---6-------4-x-4-x-4-4+6+7-4+6+7-777-14-77-777-666-2/
A-4-x-4-x-4-------------444-444-------------4-x-4-x-4-------------777-12-77---------2/
E-2-x-2-x-2-------------222-222-------------2-x-2-x-2-------------555-12-55---------0/
Verse
E-----------------------------------------------------------------------------
B--------------------------------9999/----------------------------------9999/-
G-3---3---3----------------------9999/--3-x-3-x-3-------------666-13-66-9999/-
D-4---4---4-4+6+7-4+6+7-444-444--7776/--4-x-4-x-4-4+6+7-4+6+7-777-14-77-7776/-
A-4-x-4-x-4-------------444-444---------4-x-4-x-4-------------777-14-77-------
E-2-x-2-x-2-------------222-222---------2-x-2-x-2-------------555-12-55------- repeat all
E--------------------
B----7/-9/-11/-------
G-6/-7/-9/-11/-11/-6/
D-6/-5/-7/-9/--11/-6/
A-4/-----------9/--4/
E-------------------- pick slide
E---------------------------------------------------------------------------------0/
B----------------------------------9---9-0/-----------------------5-4---5-4-8-5-4-0/
G-3---3---3----------------------9---9--0/--3-x-3-x-3-------------6-5-2-6-5-9-6-5-2/
D-4---4---4-4+6+7-4+6+7-444-444-7---6-------4-x-4-x-4-4+6+7-4+6+7-6-5-2-6-5-9-6-5-2/
A-4-x-4-x-4-------------444-444-------------4-x-4-x-4-------------4-2-0-4-2-7-4-2-0/
E-2-x-2-x-2-------------222-222-------------2-x-2-x-2-------------------------------
...pantient. so unnatennded....
E---------
B-5/-5----
G-6/--6---
D-6/---6--




Ваше мнение



Капча