----------------------------------------------------------------------------
NATION-STATES - Propagandhi
----------------------------------------------------------------------------

[email protected] > MEANS STRUM

INTRO
G]--------------------------]
D]--------------------------]
A]-1-1-1----------6-6-6-5-4-]
E]-------1-1-1-3>-----------]

G]--------------------------------]
D]--------------------------------]
A]-1>-------------------6-6-6-5-4-]x4
E]----1-1-2-2-3-3-3-2-1-----------]

G]-------------]
D]-------------]
GUITAR THEN THIS A]-1>-------3>-]
E]----1>-3>----]

VERSE
G]----------------------------] [---]
D]----------------------------] [---]
A]-1>-6>-------1>-6>-1>-3>-6>-]x2 [-8-]
E]-------3>-1>----------------] [---]

WE'RE BORN, HIRED....
G]----------------]
D]----------------]
A]-1>-3>-6>-8>-9>-]
E]----------------]

VERSEx1

INTROx3

OUTRO
G]---------------------]
D]---------------------]
A]-6-6-6-5-4-----------]x4
E]-----------3-3-3-2-1-]

---------------------------------------------------------------------------




Ваше мнение



Капча