----------------------------------------------------------------------------
NAILING DESCARTES TO THE WALL - Propagandhi
----------------------------------------------------------------------------

> MEANS STRUM

VERSE
G|-----------------------------------|
D|-----------------------------------|
A|----------------5>-6>----5>-6>-----|x2
E|-3-3-5-6>-5>-3>-------3>-----------|

G|-----------------------------------|
D|-----------------------------------|
A|-6-----6---------------------------|
E|---3-3-----------------------------|

VERSE2
G|-----------------------------------|
D|-----------------------------------|
A|----------6>----------6>-----------|
E|-6>-5>-3>----6>-5>-3>----6>-5>-3-1-|

CHORUS
G|-----------------------------------|
D|----------5-5-5--------------------|
A|-6>-------------3-3-3-5-5-5--------|x3
E|----1>-3>--------------------------|

END
G|-----------------------------------|
D|-----------------------------------|
A|-6>-8>-----------------------------|
E|-------3-3-------------------------|

--------------------------------------------------------------------------




Ваше мнение



Капча