From: [email protected] (Bruno Lamoureux)
Subject: TAB: I want U to vant me by PropaGandhi
Titre: I want U 2 vant me
Groupe: PropaGandhi
Album: How to clean everything
Ecrit Par: PropaGandhi
Transcrit Par: B.Lamoureux
----------------------------------------------------------------------
I just wrote the notes, find the rhytm by yourself
----------------------------------------------------------------------

clean distortion
|----------0--2--2---------0-------------------2-------------------------
|-2--0--------------0------0-------2-----2-----3-----2-----2---------2---
|-------2------------------1-------2-----2-----2-----2-----2--4------2---
|-------------0------------2-------2--2--4--2--0--2--2--2--4--4---5--2---
|-0--------------4--2------2-------0--0--4--2-----4--0--0--4--2---5--0---
|----4--2--0---------------0----------4--2--0-----------4--2------3------

Did not did not see a crying...
|--------------------------------------------------------0-----------2---
|-2-------------------------2----------------------------0-----2-----3---
|-2--4----------------------2----------------------------1-----2-----2---
|-4--4--5--4----------------2----------------------------2-----4-----0---
|-4--2--5--4----------------0----------------------------2-----4---------
|-2-----3--2---------------------------------------------0-----2---------
Ce fichier a t cre par Tab 1.1
--PART.BOUNDARY.902.19851.nyongwa.montreal.qc.ca.794367260.1--




Ваше мнение



Капча