m: "Brian Hinze"
Subject: p/propagandhi/i_wanna_see_oka_everywhere.tab
Date: Tue, 21 Apr 1998 19:05:15

I WANNA SEE OKA EVERYWHERE by Propagandhi

this is a tab and words of a rare song off of a 10 inch vinyl split of
propagandi and i*spy called "I’d rather be flag burning!" it’s also, as far
as picking goes, one of their hardest songs. this record was released when
they were still on their own G-7 Welcoming Committee record label. They are
currently on Fat Wreck-chords.

defined:
7x = muffle 7th fret and pick downward
7xxxx = muffle 7th and pick downward 4 times
7/9 = slide to from 7 to 9

ONCE AGAIN-this tab is very specific, each strum is defined
intro:

E--0-0-2-0---0-0-2-0---------------------------------------------------
B--2-2-2-2---2-2-2-0-------2-----2---5-2-----2------------------------------
---------
G--2-2-2-2---2-2-2-2--2-4---2-4---2-----2-4---4-2----------------------
D---------------------------------------------------------------------------
--
A---------------------------------------------------------------------------
E---------------------------------------------------------------------------
--

intro words:

the best thing i ever saw on tv was an s.q. cop catching a bullet with his
teeth.
my condolence madam canadiana but your husband was a f***ing stuck pig.

bridge (THIS IS KIND OF LONG)

E---------------------------------------------------------------------------
------------
B---------------------------------------------------------------------------
------------
G-----------6-7-6—9xx-9--11-11-9-----------6-7-6--9-11-11--11-9-7-------
PLAY THIS TWICE
D--7-7-7--7-7-7—9xx-9--11-11-9---7x-7---7-7-7--9-11-11-11--9-7-------
A--7-7-7------------7xx-7--9---9--7---7x-7------------7-9---9---9--7-5------
---
E--5-5-5----------------------------------5x-5------------------------------
---------

bridge2

then

E---------------------------------------------------------------------------
------------
B------------------------7--------------------------------------------------
-------------
G-----------6-6xx---6----6--7-----------6-6xx
--9-9--9---9--9------------------- PLAY THIS TWICE
D--7-7xx--6-6xx------------7--7-7xx--6-6xx --9-9--9---9--9-----------------
A--7-7xx--4-4xx------------5--7-7xx--4-4xx --7-7--7---7--7------------------
E--5-5xx-------------------------5-5xx
-------------------------------------------

now drums and bass play alone while chris sings:
but this song’s not about some romantic account of history, it’s not about
martyrs or mythos or heroes
or burnings in effigy. it’s about a native kid flipping her wig to try to
keep some self-respect in tact.
it’s about an oka who raised her fist in resistance, and a will to fight
back!
verses 1 and 2
play these two parts for verse one, then again for verse two!!

E-----------------------------------------------------------
B-----------------------------------------------------------
G---------6-6-7-7-7x-6-6---------6-6-7-7-7x-6-6---- PLAY TWICE
D-7-7-7-6-6-7-7-7x-6-6-9-9-9--6-6-7-7-7x-6-6----
A-7-7-7-4-4-5-5-5x-4-4-9-9-9--4-4-5-5-5x-4-4----
E-5-5-5---------------------7-7-7------------------------

E-----------------------------------------------------------
B-----------------------------------6/7-7-7--7-----------
G------------6/7/9-9-9------------6/7-7-7--7---------- YUP, TWICE AGAIN
D--7-7-7---6/7/9-9-9--7-7-7—4/5-5-5--5--2-------
A--7-7-7—4/5/7-7-7--7-7-7------------------2--------
E--5-5-5-----------------5-5-5------------------0-------

words:
verse1
the girls at work, they still deny their racism. they claim tolerance for
all, but it seems the degree of only
racial slurs as their gauge defines tolerance as hate. and there’s
27-million girls at work here. imagine fighting that 500 years.

verse2
And golly gee! how valiant! how the white oppressor makes allowance for the
calculated gestures of
insurgence tightly tethered to their purses. oka had this orchestra
aborted. oka f***ed the rules to choose a future self-determined. i
support *it.

*here’s where you start playing this little solo

E---------------------------------------------------------------------------
----------------------------------
B---------------------------------------------------------------------------
----------------------------------
G----6-7-9--6-7--9-9-9-9-9-7-6----6-7-9--6-7--9-9-9----6-7-9--6-7--9-9-9-9-9
-7-6--------------
D--7---------------------------------9------------------------7-------------
---------------------9-----2-2-2-2------
A---------------------------------------------------------------------------
------------------------------2-2-2-2-----
E---------------------------------------------------------------------------
------------------------------0-0-0-0-----

here’s the end

E---------------------------------------------------------------------------
--------------------------------------
B---------------------------------------------------------------------------
--------------------------------------
G---------------------------------------------------------------------------
--------------------------------------
D--7-7-7--4-4-4-2---2-2-2---7-7-7--4-4-4-(3-3-3xxxx--5-5-5xxxx)----7--------
---------------------
A--7-7-7--4-4-4-2---2-2-2---7-7-7--4-4-4-(3-3-3xxxx--5-5-5xxxx)----7--------
-----------------------
E--5-5-5--2-2-2-0---0-0-0---5-5-5--2-2-2-(1-1-1xxxx--3-3-3xxxx)----5--------
------------------------
( play
these sets 4 times each)
words:
end
and the best thing i think i ever said, was ‘if a Kevin Costner cavalry is
your means to their ends, then the struggle is dead.’ why do we pretend
approval is upon what they depend?

any questions, e-mail brian at [email protected]
i also take requests if you want me to tab any other propagandhi song




Ваше мнение



Капча