Song: Homophobes Are Just Pissed Cause They Can't Get Laid
Band: Propagandhi
Album: Fat Music For Fat People (Comp)
tabbed by: Luke ([email protected])

Verse
G:--------------]
D:--------------]
A:-5>-----33333-] x2
E:----222-------]
Next Part
G:-----------------------]
D:-----------------------]
A:----55-33-2----22-33-2-] x2
E:-3>---------3>---------]
Third Part
G:-------------------]
D:-------------------]
A:----5-333----2-333-] x2
E:-3>-------3>-------]
Verse x2
Third Part x2 (But this time finish on the 3rd fret on E)
Bridge Then play this
G:-------------] [----------------]
D:-------------] [----------------]
A:-7-5-3---5-3-] x2 [-7-5-3---5-3-5>-]
E:-------3-----] [-------3--------]
Verse x4
Next Part x2
Third Part x2
Thats the lot (i think). There may be a few mistakes in the
strumming but apart from that it's just about cock on.




Ваше мнение



Капча