-------------------------------------------------------------------------
HEAD?CHEST? OR FOOT? - Propagandhi
-------------------------------------------------------------------------

> MEANS STRUM

VERSE#1
G]---------------------------------------------------]
D]---------------------------------------------------]
A]---5-4-------7>---5-4-------5>---5-4-------7>-9>-5>]
E]-5-----7-5-4----5-----7-5-4----5-----7-5-4---------]

CHORUSx3
G]---------------------------]
D]---------7-------7-------7-]
A]---5-4-5---5-4-5---5-4-5---]
E]-5-------------------------]

LAST LINE OF CHORUS
G]---------------------------]
D]---------------------------]
A]---5-4-5--5-7-5-4--5-4-----]
E]-5---------------------7-5-]

VERSE#2
G]-----------------]
D]-----------------]
A]----4>-------7-7-]
E]-5>----2>-0>-----]

---------------------------------------------------------------------------




Ваше мнение



Капча