-------------------------------------------------------------------------------------------
Hallie does Hebron - Propagandhi
-------------------------------------------------------------------------------------------
Part1
G|----------------------------------------|
D|----------------------------------------|
A|------------------32--------------32----|
E|----5555-555-3333----1111-111-333-------|
Part2
G|--------------------------------------------|
D|---------------------------------5----------|
A|------------------32--------------5-3232----|
E|----5555-555-3333----5555-555-33------------|
I think the first part is played when the guitar joins in.
But I'm not sure cause I can't hear the bass very well with
the guitars playing. Please correct me if I'm wrong.
[email protected] - http://www.geocities.com/Tokyo/Dojo/3053/




Ваше мнение



Капча