PROPAGANDHI-FUCK MACHINE
Tabbed By Ben H (PunkAsPhuck)
intro
e|-----------------------------------------------|
B|-----------------------------------------------|
G|-----------------------------------------------|
D|-3-----------------2-3-3-3p2-------5-------5---|
A|-3-------------0h3---1-1-----3p0-3-3-3-2-3---3-|
E|-1-1-1-1-1h2h3---------------------------------| x2
intro (guitar 2)
e|-------|
B|-------|
G|---3-3-|
D|-3-3-3-|
A|-3-1-1-|
E|-1-----| x2
verse
e|---------------------------------|
B|---------------------------------|
G|---------2-2-2-2-3-3-3-3-5-5-5-5-|
D|-3-3-3-3-2-2-2-2-3-3-3-3-5-5-5-5-|
A|-1-1-1-1-0-0-0-0-1-1-1-1-3-3-3-3-|
E|-1-1-1-1-------------------------|
riff 1
e|-------------------------------|
B|-------------------------------|
G|-7-7-----10-10-10-10-7-7-------|
D|-7-7-8-8-10-10-10-10-7-7-8-8-3-|
A|-5-5-8-8--8--8--8--8-5-5-8-8-3-|
E|-----6-6-----------------6-6-1-|
riff 2
e|---------------------|
B|---------------------|
G|-7-7-----10-10-10-10-|
D|-7-7-8-8-10-10-10-10-|
A|-5-5-8-8--8--8--8--8-|
E|-----6-6-------------| x3
riff 3
e|-----------|
B|-----------|
G|-7-7-------|
D|-7-7-8-8-3-|
A|-5-5-8-8-3-|
E|-----6-6-1-|
intro
e|-----------------------------------------------|
B|-----------------------------------------------|
G|-----------------------------------------------|
D|-3-----------------2-3-3-3p2-------5-------5---|
A|-3-------------0h3---1-1-----3p0-3-3-3-2-3---3-|
E|-1-1-1-1-1h2h3---------------------------------| x2
riff 2
e|---------------------|
B|---------------------|
G|-7-7-----10-10-10-10-|
D|-7-7-8-8-10-10-10-10-|
A|-5-5-8-8--8--8--8--8-|
E|-----6-6-------------| x2
riff 4
e|---------------------------|
B|---------------------------|
G|-7-7-----10-10-8-8-7-7-----|
D|-7-7-8-8-10-10-8-8-7-7-8-8-|
A|-5-5-8-8--8--8-6-6-5-5-8-8-|
E|-----6-6---------------6-6-|
verse
e|---------------------------------|
B|---------------------------------|
G|---------2-2-2-2-3-3-3-3-5-5-5-5-|
D|-3-3-3-3-2-2-2-2-3-3-3-3-5-5-5-5-|
A|-1-1-1-1-0-0-0-0-1-1-1-1-3-3-3-3-|
E|-1-1-1-1-------------------------| x2
riff 2
e|---------------------|
B|---------------------|
G|-7-7-----10-10-10-10-|
D|-7-7-8-8-10-10-10-10-|
A|-5-5-8-8--8--8--8--8-|
E|-----6-6-------------| x2
riff 4
e|---------------------------|
B|---------------------------|
G|-7-7-----10-10-8-8-7-7-----|
D|-7-7-8-8-10-10-8-8-7-7-8-8-|
A|-5-5-8-8--8--8-6-6-5-5-8-8-|
E|-----6-6---------------6-6-|
verse
e|---------------------------------|
B|---------------------------------|
G|---------2-2-2-2-3-3-3-3-5-5-5-5-|
D|-3-3-3-3-2-2-2-2-3-3-3-3-5-5-5-5-|
A|-1-1-1-1-0-0-0-0-1-1-1-1-3-3-3-3-|
E|-1-1-1-1-------------------------|
riff 5
e|-------------------------|
B|-------------------------|
G|---------2-2-2-2-3-3-3-3-|
D|-3-3-3-3-2-2-2-2-3-3-3-3-|
A|-1-1-1-1-0-0-0-0-1-1-1-1-|
E|-1-1-1-1-----------------|
bridge
e|---------|
B|---------|
G|---------|
D|-----5---|
A|-3-3---3-|
E|---------| x36
bridge (guitar 2)
e|-----|
B|-----|
G|-3-3-|
D|-3-3-|
A|-1-1-|
E|-----| x 4
riff 6
e|-----------|
B|-----------|
G|-----------|
D|-3-3-3-5-3-|
A|-----------|
E|-----------|
chorus
e|-3-0-3-1-|
B|-3-0-3-1-|
G|-5-2-4-2-|
D|-5-2-5-3-|
A|-3-0-5-3-|
E|-----3-1-| x4
bridge
e|---------------|
B|---------------|
G|---------------|
D|-------5-5-5---|
A|-3-3-3-------3-|
E|---------------| x36
riff 7
e|-3-1-0-3-----------------------------|
B|-3-1-0-3-----------------------------|
G|-5-2-2-4-----------------------------|
D|-5-3-2-5-----------------------------|
A|-3-3-0-5-----------------------------|
E|---1---3-----------------------------|
intro
e|-----------------------------------------------|
B|-----------------------------------------------|
G|-----------------------------------------------|
D|-3-----------------2-3-3-3p2-------5-------5---|
A|-3-------------0h3---1-1-----3p0-3-3-3-2-3---3-|
E|-1-1-1-1-1h2h3---------------------------------| x2
riff 1
e|-------------------------------|
B|-------------------------------|
G|-7-7-----10-10-10-10-7-7-------|
D|-7-7-8-8-10-10-10-10-7-7-8-8-3-|
A|-5-5-8-8--8--8--8--8-5-5-8-8-3-|
E|-----6-6-----------------6-6-1-| x2




Ваше мнение



Капча