PROPAGANDHI-BACK TO THE MOTOR LEAGUE
Tabbed By Ben H (PunkAsPhuck)
x = Palm Mute
/ = Slide
b = bend
h = hammer on
intro
e|---------------------------------------------------------------------------------|
B|---------------------------------------------------------------------------------|
G|--------------------11-11-9------------------------------11-11-5x--5/11/5--------|
D|--11-11-x-x-x-11x---11-11-9---------11-11-x-x-x-11-11x---11-11-5x--5/11/5---11---|
A|--11-11-x-x-x-11x----9--9-7-7/8/9---11-11-x-x-x-11-11x----9--9-7x--7/ 9/7---11---|
E|---9--9-x-x-x--9x--------------------9--9-x-x-x--9--9x-----------------------9---|
e|-----------------------------------------------------------------------------|
B|-----------------------------------------------------------------------------|
G|--11-11-9-----------------------------11-11-9--9/11/9------------------------|
D|--11-11-9---------11-11-11-11-11-11---11-11-9--9/11/9--11-11-11-11-11-11-----|
A|---9--9-7-7/8/9---11-11-11-11-11-11----9--9-7--7/ 9/7--11-11-11-11-11-11-----|
E|-------------------9--9--9--9--9--9---------------------9--9--9--9--9--9-----| x2
e|---9-------------------------------------------|
B|---9-------------------------------------------|
G|---9---------------------------------9-9-9-9---|
D|--11-----------11x----11x------------9-9-9-9---|
A|--11-----------11x----11x------------7-7-6-7---|
E|---9------------9x-----9x----------------------|
verse
e|--7------9-----9--------------------|
B|--7------9-----9--------------------|
G|--7-----11-----9------9-9-9-9-------|
D|--9-----11----11------9-9-9-9-------|
A|--9------9----11------7-7-6-7-------|
E|--7------------9--------------------| x3
e|-----------------------------------|
B|-----------------------------------|
G|-----------------------------------|
D|--9-11xxxx--11-9xxxx-9-7xxxx-------|
A|--9-11xxxx--11-9xxxx-9-7xxxx-------|
E|--7--9xxxx---9-7xxxx-7-5xxxx-------|
chorus
e|------------------------------------------------|
B|------------------------------------------------|
G|------------------9---9---------------9---9-11--|
D|--11-11-11-11---9-9-9-9-9--7-7x-7x--9-9-9-9-11--|
A|--11-11-11-11---9-7-9-7-9--7-7x-7x--9-7-9-7--9--|
E|---9--9--9--9---7---7---7--5-5x-5x--7---7-------| x4

verse
e|------------------------------------------|
B|------------------------------------------|
G|------------------------------------------|
D|--9-11xxxx--11-9xxxx-9-7xxxx----7-6-7-6---|
A|--9-11xxxx--11-9xxxx-9-7xxxx----7-6-7-6---|
E|--7--9xxxx---9-7xxxx-7-5xxxx----5-4-5-4---| x2
e|-----------------------------------------------------|
B|-----------------------------------------------------|
G|--16-16-16-16-16-16-16-16----------------------------|
D|--16-16-16-16-16-16-16-16----14------14--------------|
A|--14-14-14-14-14-14-14-14----14---------14------14---|
E|-----------------------------12--------------12------|
bridge
e|-------------------------------------------|
B|-------------------------------------------|
G|-----------------9-x------------------9-x--|
D|--9-11-x-x-x-9-x-9-x-9-x--7-x-x-x-9-x-9-x--|
A|--9-11-x-x-x-9-x-7-x-9-x--7-x-x-x-9-x-7-x--|
E|--7--9-x-x-x-7-x-----7-x--5-x-x-x-7-x------| x4
e|-----------------------------|
B|-----------------------------|
G|--16-16-16-16-16-16-16-16----|
D|--16-16-16-16-16-16-16-16----|
A|--14-14-14-14-14-14-14-14----|
E|-----------------------------|

solo(chorus plays twice during solo)
e|---12b-12b-12b-----12h15h17--/19b------------------------------|
B|-----------------------------------14-17-19---14/12-12h14--7---|
G|---------------------------------------------------------------|
D|---------------------------------------------------------------|
A|---------------------------------------------------------------|
E|---------------------------------------------------------------|
e|-----------------------------------|
B|----------------9-9-10-10----------|
G|----------------9-9--9--9----------|
D|--11-11-11-11---7-7--7--7----------|
A|--11-11-11-11----------------------|
E|---9--9--9--9----------------------| x8
e|-----------------------------------|
B|-----------------------------------|
G|-----------------------------------|
D|-11--9---11--7----14--11-/-3-------|
A|-11--9---11--7----14--11-/-3-------|
E|--9--7----9--5----12---9-/-1-------|




Ваше мнение



Капча