#----------------------------------PLEASE NOTE---------------------------------#
#This file is the author's own work and represents their interpretation of the #
#song. You may only use this file for private study, scholarship, or research. #
#------------------------------------------------------------------------------##
From: CESAR MANUEL CARDENAS TORRES
whose fist is this anyway?
by prong
from the album cleansing
Key Notation
^ - artificial harmonic
h - hammer-on
p - pull-off
/ or - slide
b - bend
. - palm muting
(tabed by Cesar Cardenas)
Intro
B#|------------------------------------|----------------------------------|-||
G |------------------------------------|----------------------------------|-||
Eb|o-----------------------------------|----------------------------------|-||
A#|o--7/9------7/9-------7/9-----7/9---|-7/9---3-----7/9-----7/9----7/9---|-||
F |---5/7------5/7-------5/7-----5/7---|-5/7---3-----5/7-----5/7----5/7---|-||
C |-------0---------0--------0-------0-|-----0-1---------0--------0-----0-|-||
. . . . . . . .
play 4 times
B#|-------------------------------------||
G |-------------------------------------||
Eb|------------------------------------o||
A#|--7/9-----5-3-5---------------------o||
F |--5/7-----5-3-5----------------------||
C |------0---3-1-3----------------------||
.
x 2
B#|------------------------------------|----------------------------------|-||
G |------------------------------------|----------------------------------|-||
Eb|o-----------------------------------|---------------------------------o|-||
A#|o--7/9--------7/9---(9)-----7/9-----|------7/9----(9)-------9---------o|-||
F |---5/7--------5/7---(7)-----5/7-----|------5/7----(7)-------7----------|-||
C |--------0000------------------------|0000-------------------0----------|-||
.... ....
x 4
B#|--------------------------------------|--------------------------------|-||
G |--------------------------------------|--------------------------------|-||
Eb|o-------------------------------------|-------------------------------o|-||
A#|o-------------------------------------|-------------------------------o|-||
F |--2/4----2/4----2/4----2/4----x-x-----|-2/4----2/4----2/4----2/4--4-4-5|-||
C |--0h2----0h2----0h2----0h2----x-x--9/-|-0h2----0h2----0h2----0h2--2-2-3|-||
x 3
B#|------------------------------------|----------------------------------|-||
G |------------------------------------|----------------------------------|-||
Eb|o-----------------------------------|---------------------------------o|-||
A#|o--7/9--------7/9---(9)-----7/9-----|------7/9----(9)-------9---------o|-||
F |---5/7--------5/7---(7)-----5/7-----|------5/7----(7)-------7----------|-||
C |--------0000------------------------|0000-------------------0----------|-||
.... ....
B#|------------------------------------|----------------------------------|-||
G |------------------------------------|----------------------------------|-||
Eb|o-----------------------------------|----------------------------------|-||
A#|o--7/9------7/9-------7/9-----7/9---|-7/9---3-----7/9-----7/9----7/9---|-||
F |---5/7------5/7-------5/7-----5/7---|-5/7---3-----5/7-----5/7----5/7---|-||
C |-------0---------0--------0-------0-|-----0-1---------0--------0-----0-|-||
. . . . . . . .
play 2 times
B#|-------------------------------------||
G |-------------------------------------||
Eb|------------------------------------o||
A#|--7/9-----5-3-5---------------------o||
F |--5/7-----5-3-5----------------------||
C |------0---3-1-3----------------------||
.
x 4
B#|--------------------------------------|--------------------------------|-||
G |--------------------------------------|--------------------------------|-||
Eb|o-------------------------------------|-------------------------------o|-||
A#|o-------------------------------------|-------------------------------o|-||
F |--2/4----2/4----2/4----2/4----x-x-----|-2/4----2/4----2/4----2/4--4-4-5|-||
C |--0h2----0h2----0h2----0h2----x-x--9/-|-0h2----0h2----0h2----0h2--2-2-3|-||
Here comes the solo. I don't play solos and don't have the rythm for the solo.
outro
B#|------------------------------------|----------------------------------|-||
G |------------------------------------|----------------------------------|-||
Eb|o-----------------------------------|---------------------------------o|-||
A#|o-----------------------------------|---------------------------------o|-||
F |--7-------5---5---------------------|5-6-7------5-----5----------------|-||
C |--5--0-0--3------0-0--000--0-0------|3-4-5-0-0--3-0-0--0-0-000-0-0--000|-||
. . ^ . . ... . . . . . . ^. . ... . . ...
That's basically the whole song. I know i'm skipping some artificial harmonics
and, some chords are wrong, but it still sounds good. I'm not good naming the
tuning so, it is just tuned down two whole steps. I also have the song test
from prong. If you wish me to post it, mail me([email protected]).
I hope you liked my work and follow my ... instructions.
**************************************************************************
* *
* we dance like marionettes, swaying to the symphony of destruction. *
* *
* - Dave Mustaine *
**************************************************************************




Ваше мнение



Капча