Prong, Sublime.
Tabbed by Edgar Montoya [email protected]

#----------------------------------PLEASE NOTE--------------------------------#
#This file is the author's own work and represents their interpretation of the#
#song. You may only use this file for private study, scholarship, or research.#
#-----------------------------------------------------------------------------#
Author/Artist: Prong
Title: Sublime
Album: Cleansing
Email: [email protected]
dropped d tuning: detune string 6 one whole note
(x) - don't pick note, or optional
p - pull-off
% - rest
^ - bend
r - release bend
~ - vibrato

1-I-5--5--5--5/(7)---7--7---5--5--5--5/(7)---10p7-----5--5--5--5/(7)---7--7--
2-I-6--6--6--6/(8)---8--8---6--6--6--6/(8)---------8--6--6--6--6/(8)---8--8--
3-I-5--5--5--5/(7)---7--7---5--5--5--5/(7)------------5--5--5--5/(7)---7--7--

1-------------------------5--5--5--5/(7)---7--7---5--5--5--5/(7)---10p7-------
2-------------------------6--6--6--6/(8)---8--8---6--6--6--6/(8)---------8----
3-0--0--0--0--0--0--------5--5--5--5/(7)---7--7---5--5--5--5/(7)--------------
4-3--3--3--2--2--2-------------------------------------------------------------
5-------------------3--0-------------------------------------------------------

1-5--5--5--5/(7)---7--7----------------------------I-- is the intro and
2-6--6--6--6/(8)---8--8----------------------------I-- chorus; here's the
3-5--5--5--5/(7)---7--7---0--0--0--0-------0--0--0-I-- verse
4--------------------------3--3--3--3/(5)---5--5--5-I--

1-I-------------------------2--------------------------------------------------
2-I----------------------------------------------------------------------------
3-I-4---3---3---3-4-4---3------3-----4---3---3---3------------------4---3---3--
4-I-4---4-%-4-%-4-4-4---4---------4--4---4-%-4-%-4------------------4---4-%-4-%
5-I-2---1---1---1-2-2-0-1------------2---1---1---1-------1-1-1------2---1---1--
6-I-------------------0----------------------------5-5-5-------4-4-------------

1-------------2---------------------------------------I--
2-----------------------------------------------------I--
3-3-4-4---3------3-----4---3---3---3------------------I--
4-4-4-4---4---------4--4---4-%-4-%-4------------------I--
5-1-2-2-0-1------------2---1---1---1-------1-1-1-2-0--I--
6-------0----------------------------5-5-5------------I--

for the bridge, just play eighth notes on the open 5th string; here's the solo:
1-I--5--5--5--5/(7)---7--7---5--5--5--5/(7)---10p7-----5--5--5--5/(7)---7--7--
2-I--6--6--6--6/(8)---8--8---6--6--6--6/(8)---------8--6--6--6--6/(8)---8--8--
3-I--5--5--5--5/(7)---7--7---5--5--5--5/(7)------------5--5--5--5/(7)---7--7--
4-I----------------------------------------------------------------------------

~ ~
1------------------------------------------------------------------------------
2------------------------------------------------------------------------------
3-9-9^r-9^r-9^rp7------9/(14)-14-14-12-12-12-12-9-9^rp7--------9-9^rp7----7----
4------------------10-7---------------------------------10-7-----------10------

1-------------------------------I--
2-------------------------------I--
3--9/(14)-14-14-14-12-12-12-12--I--
4-------------------------------I--




Ваше мнение



Капча