From [email protected] Sun May 4 10:43:20 1997
Date: Mon, 31 Mar 1997 18:15:45 -0500 (EST)
From: [email protected]
To: [email protected]
Subject: Tab: "Rude Awakening" by Prong
[The following text is in the "unknown-8bit" character set]
[Your display is set for the "US-ASCII" character set]
[Some characters may be displayed incorrectly]
"Rude Awakening"
PRONG: from the album RUDE AWAKENING
Submitted by Mr. Ameche ([email protected])
Tune down a whole step.
Tune low D to C: d A F C G C
Intro:
d|----------------|----------------|---------------|---------------|
A|----------------|----------------|---------------|---------------|
F|----------------|----------------|---------------|---------------|
C|----------------|----------------|---------------|---------------|
G|----------------|----------------|---------------|---------------|
C|-0-0-0-0---0-0--|-0-0-0-0---0-0--|-0-0-0-0---0-0-|-0-0-0-0---0-0-|
Main:
d|-----------------------------------------------|
A|-----------------------------------------------|
F|---9-9-9-9-7-5---5---5-5-5/7---7-7---3-3-X-3-3-|
C|-----------------------------------------X-----|
G|-0-7-7-7-7-5-3---3---3-3-3/5---5-5---1-1-X-1-1-|
C|-0---------------------------------------X-----|
Verse: Then:
d|----------------|-----------------------------|
A|----------------|-----------------------------|
F|----------------|---0-----0-----0-----------0-|
C|----------------|-0---0-3---3-5---5---5-0-1---|
G|----------------|-0---0-3---3-5---5---5-0-1---|
C|-0----3----5----|-0---0-3---3-5---5---5-0-1---|
Pre-chorus:
d|-------------------------------------------|
A|-------------------------------------------|
F|-19-19-19---19---19---17-17-17---17---17---|
C|-------------------------------------------|
G|-17-17-17---17---17---15-15-15---15---15---|
C|----------0----0----0----------0----0----0-|
|-------------------------------------------|
|-------------------------------------------|
|-15-15-15---15---15---15-15-15---15---15---|
|-------------------------------------------|
|-13-13-13---13---13---13-13-13---13---13---|
|----------0----0----0----------0----0----0-|
Solo:
d|-----------------------------------------------------|
A|-----------------------------------------------------|
F|-----------------------------------------------------|
C|14---14---14----15---14---12-12/10---10---10---8-8-8-|
G|-0----0----0--0----0----0--------0----0----0---0-0-0-|
C|-----------------------------------------------------|
or something like that. It^Тs not that hard to thumb through.
That^Тs pretty much it. Email [email protected] with any
comments or corrections.




Ваше мнение



Капча