PRONG - Prime Cut - from the beg to differ Album
Guitar:
...Drum Intro....
A:
E-------------------------------------+ + + + + +-------------------------------
A----8------8---------8--------8------8 8 8 8 8 8-------------------------------
D---10/9----10/9------10/9-----10/9------------------------------------------------
G-------------------------------------------------------------------------------
H-------------------------------------------------------------------------------
E-------------------------------------------------------------------------------
E-------------------------------------11--------------0-------------------------
A----8------8---------8------------------11--10-------2-------------------------
D---10/9----10/9------10/9----------------------------2-------------------------
G-------------------------------------------------------------------------------
H-------------------------------------------------------------------------------
E-------------------------------------------------------------------------------
E-------------------------------------+ + + + + +-------------------------------
A----8------8---------8--------8------8 8 8 8 8 8-------------------------------
D---10/9----10/9------10/9-----10/9------------------------------------------------
G-------------------------------------------------------------------------------
H-------------------------------------------------------------------------------
E-------------------------------------------------------------------------------
E-----------------------------------------------------0-------------------------
A----8------8---------8-------------------------------2-------------------------
D---10/9----10/9------10/9------------------6---------2--------------------------
G---------------------------------------6---------------------------------------
H------------------------------------6-------------------------------------------
E-------------------------------------------------------------------------------
B:
E-----6------4-4-4-4-------6----4-4-4-4--------0-0--------------------------------------
A-----6------6-6-6-6-------6----6-6-6-6--------2-2----------------------------------
D-----6--------------------6-----------------------------------------------------
G-------------------------------------------------------------------------------
H-------------------------------------------------------------------------------
E-------------------------------------------------------------------------------
E-----6------4-4-4-4-------6----4-4-4-4--------0---------------------------------------
A-----6------6-6-6-6-------6----6-6-6-6--------2-----------------------------------
D-----6--------------------6-----------------------------------------------------
G-------------------------------------------------------------------------------
H-------------------------------------------------------------------------------
E-------------------------------------------------------------------------------
Easy but cool!
...written by J.Mчderl
E-mail: [email protected]
+ + + + + +
P.S: At the 8 8 8 8 8 8 Part, only lay your finger on the string, donЏt press
the string.




Ваше мнение



Капча