out of this misery
by Prong
from the `97 album 'cleansing'
transcribed by Christian Reindel ([email protected])
any questions or corrections - e-mail me
It's good that they are back !!! New York's finest masters of
artifical harmonixs.I don't found that brillant song on any tab site,
so I give you my suggestion how to play this song.

TUNE DOWN ONE WHOLE STEP: Dropped C tuning
2 - stop the delay
.
Intro
play 3 times 1 time
D:|--------------------|----------------------|
A:|--------------------|----------------------|
F:|--------------------|----------------------|
C:|--------------------|----------------------|
G:|-5---3---2---2-X-3--|--5---3---2---2--3----|
C:|-5---3---2---2-X-3--|--5---3---2---2--3----|
play 4 times
D:|--------------------|---------|
A:|--------------------|---------|
F:|--------------------|---------|
C:|--------------------|---------|
G:|-5---3---2---2-X-3--|--2-(2)--|
C:|-5---3---2---2-X-3--|--2-(2)--|

Verse - too much p.m.-notes and feedback - I improvise here
D:|--------------------------------------------------------------|
A:|--------------------------------------------------------------|
F:|--------------------------------------------------------------|
C:|-3-3----------------------3-3---------------------------------|
G:|-1-1-2---2----------------1-1-2---2---------------------------|
C:|-----2---2---B--A--S--S-------2---2--B--A--S--S---------------|
. .
Pre-Chorus - play 8 times
D:|----------------------|
A:|----------------------|
F:|--6-6-6--4--7--5------|
C:|--4-4-4--2--5--3------|
G:|---------2--5--3------|
C:|----------------------|

Chorus play 2 times
D:|----------------------------------------------------------------------|
A:|----------------------------------------------------------------------|
F:|----------------------------------------------------------------------|
C:|-3-3-3-3-3-3-3-3--------------------5-5-5-5-5-5-5-5-------------------|
G:|-1-1-1-1-1-1-1-1--2---2--2-2-2-2-2--3-3-3-3-3-3-3-3--2---2--2-2-2-2-2-|
C:|------------------2---2--2-2-2-2-2-------------------2---2--2-2-2-2-2-|
end chorus
out of this misery out of this misery
D:|------------------------------------------------------------|
A:|------------------------------------------------------------|
F:|------------------------------------------------------------|
C:|-3-3-3-3-3-3-3-3--------------------3-3-3-3-3-3-3-3---------|
G:|-1-1-1-1-1-1-1-1--2---2--2-2-2-2-2--1-1-1-1-1-1-1-1--2-(2)--|
C:|------------------2---2--2-2-2-2-2-------------------2-(2)--|
Outro
play 2 times
out of this misery out of this misery
D:|-----------------------------------------------------------------------|
A:|-----------------------------------------------------------------------|
F:|-----------------------------------------------------------------------|
C:|-3-3-3-3-3-3-3-3--------------------3-3-3-3-3-3-3-3--------------------|
G:|-1-1-1-1-1-1-1-1--2---2--2-2-2-2-2--1-1-1-1-1-1-1-1--2---2--2-2-2-2-2--|
C:|------------------2---2--2-2-2-2-2-------------------2---2--2-2-2-2-2--|

end.




Ваше мнение



Капча