one outnumbered

by Prong
from the `97 album 'cleansing'

transcribed by Christian Reindel ([email protected])
any questions or corrections - e-mail me

It's good that they are back !!! New York's finest masters of
artifical harmonixs.I don't found that brillant song on any tab site,
so I give you my suggestion how to play this song.

TUNE DOWN ONE WHOLE STEP: Dropped C tuning

artifical harmonics

Main riff = chorusriff
D:|--------------------------------------------------------------|
A:|---------0--0----------------------------0--0-----------------|
F:|---------0--0----------------------------0--0-----------------|
C:|-----7---5--4--4h5p4-4---4-----------7---5--4--4h5p4-----4~~~-|
G:|-0---5-----------------5-------0--5----------------5-------|
C:|-0--------------------------------0---------------------------|
[this part differs-
make improvisations]
D:|--------------------------------------------------------------|
A:|---------0--0----------------------------0--0-----------------|
F:|---------0--0----------------------------0--0-----------------|
C:|-----7---5--4--4h5p4-4---4-----------7---5--4--4h5p4-----4----|
G:|-0---5-----------------5-------0--5----------------5--5----|
C:|-0--------------------------------0---------------------------|

Verseriff - find the right rhythm, it's easy
D:|--------------------------------------------------------------|
A:|--------------------------------------------------------------|
F:|--------------------------------------------------------------|
C:|--------------------------------------------------------|
G:|-0---0--0--0-0-0--0-----------0---0--0--0-0-0-----------------|
C:|-0---0--0--0-0-0--0-----------0---0--0--0-0-0-----------------|

Pre-chorus
D:|---------------------------------------------------------------------|
A:|-0-0-0-0-0-0-0-0-0-0-0-0-0-0-0-0-0-0-0-0-0-0-0-0-----0-0-0-0-0-0-0-0-|
F:|-0-0-0-0-0-0-0-0-0-0-0-0-0-0-0-0-0-0-0-0-0-0-0-0-----0-0-0-0-0-0-0-0-|
C:|-5-5-5-5-5-5-5-5-4-4-4-4-4-4-4-4-7-7-7-7-7-7-7-7-10/-7-7-7-7-7-7-7-7-|
G:|---------------------------------------------------------------------|
C:|---------------------------------------------------------------------|

Put the riffs together.It's a kick ass song.


Ваше мнение



Капча