Author/Artist: Prong
Title: Face Value
Album: Rude Awakoning
Transcribed by: Mike
Tune all strings exept the low E down 1 step, tune
the low E down 2 steps

The one Riff I don't think is right, but the rest might be

------------------------------------------------------------------------------
------------------------------------------------------------------------------
----0--0--0-------------------------------------------------------------------
----0--0--0-------------------------------------------------------------------
-0--4--5--3-------------------------------------------------------------------
-0----------------------------------------------------------------------------
Riff A (Play 4X)

------------------------------------------------------------------------------
------------------------------------------------------------------------------
------------------------------------------------------------------------------
-7--10--10--10--8--8----------------------------------------------------------
-5--8---8---8---6--6----------------------------------------------------------
------------------------------------------------------------------------------
Riff B (Play 3X)

------------------------------------------------------------------------------
------------------------------------------------------------------------------
------------------------------------------------------------------------------
-7--6--6--6-----8--8----------------------------------------------------------
-5--4--4--4-----6--6----------------------------------------------------------
------------------------------------------------------------------------------
Riff C (Play 2X) Then Play Riff B 3X

------------------------------------------------------------------------------
------------------------------------------------------------------------------
------------------------------------------------------------------------------
-7--10--10--10--x-x-x-x--7--10--10--10--8--8----------------------------------
-5--8---8---8---x-x-x-x--5--8---8---8---6--6----------------------------------
----------------x-x-x-x-------------------------------------------------------
Riff D (Play 4X) |- - - - Skip this part on 4th repeat

------------------------------------------------------------------------------
------------------------------------------------------------------------------
------------------------------------------------------------------------------
--7--10--10--10--8------------------------------------------------------------
--5--8---8---8---6------------------------------------------------------------
------------------------------------------------------------------------------
Then Play Riff A 4X Then Riff B, slide last chord

------------------------------------------------------------------------------
------------------------------------------------------------------------------
------------------------------------------------------------------------------
------------------------------------------------------------------------------
---------------------0--0--0--0--2----------10--10--10--10--7-----------------
---------------------0--0--0--0--2----------8---8---8---8---5-----------------
Play Riff A 2X Then

------------------------------------------------------------------------------
------------------------------------------------------------------------------
------------------------------------------------------------------------------
----------------------7--10--10--10--10--8---7--10--10--10--10--7-------------
----------------------5--8---8---8---8---6---5--8---8---8---8---5-------------
------------------------------------------------------------------------------
Play Riff D 3X Then

------------------------------------------------------------------------------
------------------------------------------------------------------------------
------------------------------------------------------------------------------
------------------------------------------------------------------------------
------------------------------------------------------------------------------
------------------------------------------------------------------------------
Then play Riff A 4X Then Riff B




Ваше мнение



Капча