Beg to Differ
by Prong
E-|---------------------------------------------|
B-|---------------------------------------------|
G-|---------------------------------------------|
D-|----6--6\5-----6\5-----10\-----6\5-----------|
A-|----6--6\5-----6\5------8\-----6\5-----3-2---|
E-|-0---------0-0-----0-0-------0-----0-0-1-0---|
E-|-----------------------------------------------|
B-|-----------------------------------------------|
G-|-----------------------------------------------|
D-|----6--6\5-----6\5-----10\-----4\3-------------|
A-|----6--6\5-----6\5------8\-----4\3-----3-3-3/5-|
E-|-0---------0-0-----0-0-------0-----0-0-1-1-1/3-|
!_____!
\___play this part twice
on the fourth time
E-|--------------------|------| Play this 4 times, with that last part every
B-|--------------------|------| other time..
G-|-------------------*|-----*|
D-|-------------------*|-/7\-*|
A-|-3-3-3-2---3-3-3-2--|-/5\--|
E-|-1-1-1-0---1-1-1-0--|------|
E-|---------------------| [VERSE] riff, this might be a little [or more]
B-|---------------------| messed up.
G-|*-------------------*|
D-|*-------------------*|
A-|--2------3------5----|
E-|--0-0-0--1-0-0--3-0--|
E-|-------------------------------------|-----------| [CHORUS]
B-|-------------------------------------|-----------| Play this 3 times, then
G-|------------------------------------*|----------*| include the second part
D-|------------------9\-------4\3/4\3--*|----------*| on the fourth [and last]
A-|--6\5-----6\5-----7\-------4\3/4\3---|--3-3-3-3--| time.
E-|--4\3--0--4\3--0-----0--0------------|--1-1-1-1--|




Ваше мнение



Капча