Band: Prong
Album: Cleansing
Song: Another Worldly Device
Transcribed by: Justin Greenwood
Dropped D tuning: DADGBe
Key:
----
h = hammer-on
ph = pinch-harmonic
x = muted string
= slide down
/ = slide up
INTRO:
------
e||-------------------------------------------------------------------------I
B||-------------------------------------------------------------------------I
G||-------------------------------------------------------------------------I
D||---2---2---2-h-3-----2-----2---------------------------------------------I
A||---2---2---2-h-3--x--2--x--2--0------------------------------------------I
D||---2---2---2-h-3--x--2--x--2--0---2-h-3-h-5------------------------------I
(ph)
e||-------------------------------------------------------------------------I
B||-------------------------------------------------------------------------I
G||-------------------------------------------------------------------------I
D||---2---2---2-h-3-----2-----2------6--5----------------------------------I
A||---2---2---2-h-3--x--2--x--2--0---6--5----------------------------------I
D||---2---2---2-h-3--x--2--x--2--0---6--5--0-------------------------------I
e||-------------------------------------------------------------------------I
B||-------------------------------------------------------------------------I
G||-------------------------------------------------------------------------I
D||---2---2---2-h-3-----2-----2---------------------------------------------I
A||---2---2---2-h-3--x--2--x--2--0------------------------------------------I
D||---2---2---2-h-3--x--2--x--2--0---2-h-3-h-5------------------------------I
(ph)
e||-------------------------------------------------------------------------I
B||-------------------------------------------------------------------------I
G||-------------------------------------------------------------------------I
D||---2---2---2-h-3-----2-----2------2-h-3----------------------------------I
A||---2---2---2-h-3--x--2--x--2--0---2-h-3----------------------------------I
D||---2---2---2-h-3--x--2--x--2--0---2-h-3----------------------------------I

e||-------------------------------------------------------------------------I
B||-------------------------------------------------------------------------I
G||-------------------------------------------------------------------------I
D||---4---4---4-h-5-----4-----4---------------------------------------------I
A||---4---4---4-h-5--x--4--x--4--0------------------------------------------I
D||---4---4---4-h-5--x--4--x--4--0---4-h-5-h-7------------------------------I
(ph)
e||-------------------------------------------------------------------------I
B||-------------------------------------------------------------------------I
G||-------------------------------------------------------------------------I
D||---4---4---4-h-5-----4-----4------8--7----------------------------------I
A||---4---4---4-h-5--x--4--x--4--0---8--7----------------------------------I
D||---4---4---4-h-5--x--4--x--4--0---8--7--0-------------------------------I
e||-------------------------------------------------------------------------I
B||-------------------------------------------------------------------------I
G||-------------------------------------------------------------------------I
D||---4---4---4-h-5-----4-----4---------------------------------------------I
A||---4---4---4-h-5--x--4--x--4--0------------------------------------------I
D||---4---4---4-h-5--x--4--x--4--0---4-h-5-h-7------------------------------I
(ph)
e||-------------------------------------------------------------------------I
B||-------------------------------------------------------------------------I
G||-------------------------------------------------------------------------I
D||---4---4---4-h-5--------8--------7---------------------------------------I
A||---4---4---4-h-5--x-----8--------7---------------------------------------I
D||---4---4---4-h-5--x-----8--------7---------------------------------------I
e||-------------------------------------------------------------------------I
B||-------------------------------------------------------------------------I
G||-------------------------------------------------------------------------I
D||---4---4---4-h-5-----4-----4---------------------------------------------I
A||---4---4---4-h-5--x--4--x--4--0------------------------------------------I
D||---4---4---4-h-5--x--4--x--4--0---4-h-5-h-7------------------------------I
(ph)
e||-------------------------------------------------------------------------I
B||-------------------------------------------------------------------------I
G||-------------------------------------------------------------------------I
D||---4---4---4-h-5-----4-----4------8--7----------------------------------I
A||---4---4---4-h-5--x--4--x--4--0---8--7----------------------------------I
D||---4---4---4-h-5--x--4--x--4--0---8--7--0-------------------------------I
e||-------------------------------------------------------------------------I
B||-------------------------------------------------------------------------I
G||-------------------------------------------------------------------------I
D||---4---4---4-h-5-----4-----4---------------------------------------------I
A||---4---4---4-h-5--x--4--x--4--0------------------------------------------I
D||---4---4---4-h-5--x--4--x--4--0---4-h-5-h-7------------------------------I
(ph)
e||-------------------------------------------------------------------------I
B||-------------------------------------------------------------------------I
G||-------------------------------------------------------------------------I
D||---4---4---4-h-5------7-h-8--7-h-8--7-h-8--0-----------------------------I
A||---4---4---4-h-5--x---7-h-8--7-h-8--7-h-8--0-----------------------------I
D||---4---4---4-h-5--x---7-h-8--7-h-8--7-h-8--0-----------------------------I
Verse:
------
-SORRY! I'm not too sure exactly how this is played, I think it's two guitars!!! If you know how to play this part on one guitar send me the tab!!!
Play this after the intro.
e||----------------------------I
B||----------------------------I
G||----------------------------I
D||---2-h-3---3---3-h-5--------I
A||---2-h-3---3---3-h-5--------I
D||---2-h-3---3---3-h-5--------I
Repeat a bunch of times. (this is the part I'm not sure how to play.)
e||----------------------------I
B||----------------------------I
G||----------------------------I
D||---0--0----0--0-------------I
A||---0--0----0--0-------------I
E||---0--0----0--0-------------I
Chorus:
-------
-Just like the intro!!
e||-------------------------------------------------------------------------I
B||-------------------------------------------------------------------------I
G||-------------------------------------------------------------------------I
D||---4---4---4-h-5-----4-----4---------------------------------------------I
A||---4---4---4-h-5--x--4--x--4--0------------------------------------------I
D||---4---4---4-h-5--x--4--x--4--0---4-h-5-h-7------------------------------I
(ph)
e||-------------------------------------------------------------------------I
B||-------------------------------------------------------------------------I
G||-------------------------------------------------------------------------I
D||---4---4---4-h-5-----4-----4------8--7----------------------------------I
A||---4---4---4-h-5--x--4--x--4--0---8--7----------------------------------I
D||---4---4---4-h-5--x--4--x--4--0---8--7--0-------------------------------I
e||-------------------------------------------------------------------------I
B||-------------------------------------------------------------------------I
G||-------------------------------------------------------------------------I
D||---4---4---4-h-5-----4-----4---------------------------------------------I
A||---4---4---4-h-5--x--4--x--4--0------------------------------------------I
D||---4---4---4-h-5--x--4--x--4--0---4-h-5-h-7------------------------------I
(ph)
e||-------------------------------------------------------------------------I
B||-------------------------------------------------------------------------I
G||-------------------------------------------------------------------------I
D||---4---4---4-h-5--------8--------7---------------------------------------I
A||---4---4---4-h-5--x-----8--------7---------------------------------------I
D||---4---4---4-h-5--x-----8--------7---------------------------------------I
e||-------------------------------------------------------------------------I
B||-------------------------------------------------------------------------I
G||-------------------------------------------------------------------------I
D||---4---4---4-h-5-----4-----4---------------------------------------------I
A||---4---4---4-h-5--x--4--x--4--0------------------------------------------I
D||---4---4---4-h-5--x--4--x--4--0---4-h-5-h-7------------------------------I
(ph)
e||-------------------------------------------------------------------------I
B||-------------------------------------------------------------------------I
G||-------------------------------------------------------------------------I
D||---4---4---4-h-5-----4-----4------8--7----------------------------------I
A||---4---4---4-h-5--x--4--x--4--0---8--7----------------------------------I
D||---4---4---4-h-5--x--4--x--4--0---8--7--0-------------------------------I
e||-------------------------------------------------------------------------I
B||-------------------------------------------------------------------------I
G||-------------------------------------------------------------------------I
D||---4---4---4-h-5-----4-----4---------------------------------------------I
A||---4---4---4-h-5--x--4--x--4--0------------------------------------------I
D||---4---4---4-h-5--x--4--x--4--0---4-h-5-h-7------------------------------I
(ph)
e||-------------------------------------------------------------------------I
B||-------------------------------------------------------------------------I
G||-------------------------------------------------------------------------I
D||---4---4---4-h-5------7-h-8--7-h-8--7-h-8--------------------------------I
A||---4---4---4-h-5--x---7-h-8--7-h-8--7-h-8--------------------------------I
D||---4---4---4-h-5--x---7-h-8--7-h-8--7-h-8--------------------------------I




Ваше мнение



Капча