Here are the tabs for Room To Breathe. I'm pretty sure they're right. E-mail me if u have any questions or if I have any mistakes.
(Drop D tuning)
Intro
--------------------------------------------------
--------------------------------------------------
----------7----7--------8---8---------------------
--------7----7--------8---8----------------------- x2
------5-----5-------6---6-------------------------
----0-----0--------0---0--------------------------
Chorus
--------------------------------------------------
--------------------------------------------------
--------------------------------------------------
-0----------0---------1--------1----------3-3-3---
-0----(x13)-0---(x13)-1---(x13)1---(x12)--3-3-3---
-0----------0---------1--------1----------3-3-3---
Interlude
--------------------------------------------------
--------------------------------------------------
--------------------------------------------------
-----------------1--------------------------------
-----0-------------(x10)--------------------------
-0-0--(x10)---0-0---------------------------------
All palm muted
After this it goes back to the intro, and well listen to the song to figure out the order in which the rest is played.
Also in the verse it's just playing little things here and there that I dont know how to play yet. But the rest seems to be pretty much right. But I made up the interlude part myself and I'm not sure if its right. Hope ya like it anyway.q
Enjoy!




Ваше мнение



Капча