Nothing's What it seems
by Project Wyze
tuning = Drop D
Intro/Verse - w/clean tone
------------------------------------------------------------
------------------------------------------------------------
--9---9--9--10---10---10---12----12----12----12----12----12-
---9---9------10---10--------12----12----------12----12-----
-7--7---7--8----8----8---10----10----10----10----10----10---
------------------------------------------------------------
Chorus Riff - w/distortion
--------------------------------------------
--------------------------------------------
--------------------------------------------
-22-xxxx-55-xxxx-44-xx-4-x-55-x-55----------
-22-xxxx-55-xxxx-44-xx-4-x-55-x-55----------
-22-xxxx-55-xxxx-44-xx-4-x-55-x-55----------
Bridge riff - w/distortion (after 2x, gtr 2 comes in
with the verse riff but distorted)
-------------------------------------------------
-------------------------------------------------
-2-------3----------5----------------------------
-2-------3----------5----------------------------
-2-------3----------5----------------------------
End song on this note
---------------------------------
---------------------------------
---------------------------------
-2-------------------------------
-2-------------------------------
-2-------------------------------
If you have any questions or comments, email me at
[email protected]

[email protected]
Get your FREE download of MSN Explorer at http://explorer.msn.com/intl.asp




Ваше мнение



Капча