this is my first tab, tell me what u think. this is like 100% right! the rhythem
for the intro is sorta strange so i put the note values underneath. listen to the
song to understand it. one of my best friends is the cousin to one of the guitar
players in this band too :P enjoy
tuning:EADGBe
Q-quarter note E-eighth note Q.-dotted quarter note H-half note
intro
e:-----------------------------------I
B:-----------------------------------I
G:--------------------------2--------I
D:---2--2-------------2--223---------I
A:----23-320--32--2----23-----32--2--I
E:--0-----------3--2-0----------3--2-I
QQQQQEEQ. EEQ.QQ.QQQQQEEQ.EEQ.QQ.
~vibrato ()ghost note
*stacato / slide up
guitar 1
e:-----------------------I (play namy times)
B:-----------------------I
G:-----------------------I
D:2~~~7~~~5~~~4*4*-4*4*--I
A:2~~~7~~~5~~~4*4*-4*4*--I
E:0~~~5~~~3~~~2*2*-2*2*--I
guitar 2
e:-----------------------------------I
B:-----------------------------------I
G:--------------------------2--------I
D:---2--2-------------2--223---------I
A:----23-320--32--2----23-----32--2--I
E:--0-----------3--2-0----------3--2-I
QQQQQEEQ. EEQ.QQ.QQQQQEEQ.EEQ.QQ.
(play many times but also play when guitar 1 stops)
then near the end
guitar 1
e:-----------------------I (play namy times)
B:-----------------------I
G:-----------------------I
D:2~~~7~~~5~~~4*4*-4*4*--I
A:2~~~7~~~5~~~4*4*-4*4*--I
E:0~~~5~~~3~~~2*2*-2*2*--I
guitar 2
e:-----------------------IPlay many times
B:-----------------------I
G:-02~(2)2*2*54~44/////12I
D:2~~~~~~~~~~~~~~~~~~~~~~I
A:2~~~~~~~~~~~~~~~~~~~~~~I
E:0~~~~~~~~~~~~~~~~~~~~~~I




Ваше мнение



Капча