Tabbed By: Wader
Tuning: drop D
Intro/Verse:
e---------------------------------------
b---------------------------------------
g-7-7-7-7-7-7-7-7b-7b-7b-7b-7b-7b-7b-7b-
d-0-0-0-0-0-0-0-0--0--0--0--0--0--0--0--
a---------------------------------------
d---------------------------------------
Chorus:
e------------------------------------------
b----------------------------------------
g---------------------------------------------7-
d-0-0-0-3-0-5-0-3-0-1-1-1-0-0-0-3-0-5-0-3-x-x---
a-0-0-0-3-0-5-0-3-0-1-1-1-0-0-0-3-0-5-0-3-x-x-5-
d-0-0-0-3-0-5-0-3-0-1-1-1-0-0-0-3-0-5-0-3-x-x---
Bridge:
e---------------------------
b---------------------------
g-------7---------7---------
d-5-3-0---0-5-3-0---0-5-3-0-
a-5-3-0-5-0-5-3-0-5-0-5-3-0-
d-5-3-0---0-5-3-0---0-5-3-0-
Ending Part 1:
e-------------------------------------------------------------------------
b-------------------------------------------------------------------------
g-10-10-10-10-10-10-10-10-9-9-9-9-9-9-9-9-5-5-5-5-5-5-5-5-7-7-7-7-7-7-7-7-
d-0--0--0--0--0--0--0--0--0-0-0-0-0-0-0-0-0-0-0-0-0-0-0-0-0-0-0-0-0-0-0-0-
a-------------------------------------------------------------------------
d-------------------------------------------------------------------------
Ending Part 2:
e-------------------------------------------------------------------------
b-------------------------------------------------------------------------
g-10-10-10-10-10-10-10-10-9-9-9-9-9-9-9-9-5-5-5-5-5-5-5-5-7-7-7-7-7-7-7-7-
d-------------------------------------------------------------------------
a-8--8--8--8--8--8--8--8--7-7-7-7-7-7-7-7-3-3-3-3-3-3-3-3-5-5-5-5-5-5-5-5-
d-------------------------------------------------------------------------
This is a fairly easy song to play.
later all you p86 fans.
there new cd (songs to burn your bridges by) better be good!!!




Ваше мнение



Капча