Alright, I made a tab that is actually correct. All the other ones are wrong.
Go ahead, play away.
DADGBE tuning (dropped d)
E|---------------------------------------------
B|---------------------------------------------
G|---7-----7----10--10--10--10--12--12--12--12-
D|0--7--0--7----10--10--10--10--12--12--12--12-
A|0--5--0--5-----8---8---8---8--10--10--10--10-
D|0-----0--------------------------------------
E|---------------------------------------------
B|---------------------------------------------
G|---7-----7----10--10--10--10-----------------
D|0--7--0--7----10--10--10--10--10--10--10--10-
A|0--5--0--5-----8---8---8---8--10--10--10--10-
D|0-----0-----------------------10--10--10--10-
You can figure out the rest. It's not hard.




Ваше мнение



Капча