----------------------------------------------------------------------
me against me - project 86
----------------------------------------------------------------------
e|--------------------------|-----------------------------------------
B|--------------------------|-----------------------------------------
G|--------------------------|---7777------7---------------------------
D|-0-2-3-----0-2-3-----0-2-3|22--------22----0-3---repeat-------------
A|-0-2-3-----0-2-3-----0-2-3|22-5555---22-5--0-3----------------------
D|-0-2-3-----0-2-3-----0-2-3|22--------22----0-3----------------------
e|--------------------------------------------------------------------
B|--------------------------------------------------------------------
G|------------------------------999X999-------------------------------
D|-0-2-3-555-000-222222-555-000----X----555-000-222222-555-0-2-3------
A|-0-2-3-555-000-222222-555-000-777X777-555-000-222222-555-0-2-3------
D|-0-2-3-555-000-222222-555-000----X----555-000-222222-555-0-2-3------
e|--------------------------------------------------------------------
B|-5555-5555-5555-3333------------------------------------------------
G|-4444-4444-4444-2222------------------------------------------------
D|-2222-2222-2222-0000------------------------------------------------
A|--------------------------------------------------------------------
D|--------------------------------------------------------------------
that's all there is to the song. on the last part you can use a wah pedal, and
the verses are just left hand muting and a wah pedal. listen to the song to put
it all together.
======================================================================




Ваше мнение



Капча