Song: “Violence”
Artist: Primer 55
Album: Introduction To Mayhem
Transcribed By: Bryan Bramlett ([email protected])

CHORUS:
|-----------------------|
|-----------------------|
|-----------------------|
|-4-4--0-2-4-3-2--4-3-2-|
|-4-4--0-2-4-3-2--4-3-2-|
|-4-4--0-2-4-3-2--4-3-2-|

VERSE:
|----------------------|
|----------------------|
|----------------------|
|----------------------|
|----------------------|
|-4-4--0-2-4-3-2-4-3-2-|

BRIDGE:
|-------------------|
|-------------------|
|-4---5---7-77-7777-|
|-2-X-3-X-5-55-5555-|
|-2-X-3-X-5-55-5555-|
|-2-X-3-X-5-55-5555-|

FILL:
|------------------------|
|------------------------|
|------------------------|
|------------------------|
|-4/5--4/5--4/5-44445555-|
|------------------------|

INTERLUDE:
|---------------------|
|---------------------|
|---------------------|
|-4--4---------------|
|-4--4---------------|
|-4--4--4-3-2--4-3-2-|





Ваше мнение



Капча