Primer 55 : Introduction to Mayhem : Stain
Tuning: Drop D down 1/2 step
Tabbed by: Jeff Holmes
Email: [email protected]

fig1a
pm*************************
1|-------------------------------
2|-------------------------------
3|-------------------------------
4|-0-0---0-0-0---0-0-0---003-0-1-
5|-0-0---0-0-0---0-0-0---003-0-1-
6|-0-0---0-0-0---0-0-0---003-0-1-

fig1b
pm*****************************
1|---------------------------------
2|---------------------------------
3|---------------------------------
4|-0-0---0-0-0---0-4-5-4-3-2-3-2-1-
5|-0-0---0-0-0---0-4-5-4-3-2-3-2-1-
6|-0-0---0-0-0---0-4-5-4-3-2-3-2-1-

fig1c
pm*****************************
1|---------------------------------
2|---------------------------------
3|---------------------------------
4|-0-0---0-0-0---0-1-2-3-2-3-4-5-4-
5|-0-0---0-0-0---0-1-2-3-2-3-4-5-4-
6|-0-0---0-0-0---0-1-2-3-2-3-4-5-4-

fig2 pm* pm* pm* pm* pm* pm*
1|---------------------------------------------------------------
2|---------------------------------------------------------------
3|---------------------------------------------------------------
4|-5p4-0-0-5p4-0-0-5p4-0-0-5p4-0-0-5p4-0-0-5p4-0-0-5p4-4h5-5h6-7-
5|-5p4-0-0-5p4-0-0-5p4-0-0-5p4-0-0-5p4-0-0-5p4-0-0-5p4-4h5-5h6-7-
6|-5p4-0-0-5p4-0-0-5p4-0-0-5p4-0-0-5p4-0-0-5p4-0-0-5p4-4h5-5h6-7-

fig3a
pm*************************
1|-------------------------------
2|-------------------------------
3|-------------------------------
4|-------------------------------
5|-------------------------------
6|-0-0-0-0-0-0-0-0-0-0-0-003-0-1-

fig3b
pm*************
1|-------------------------------
2|-------------------------------
3|-------------------------------
4|-----------------0-------------
5|-----------------0-------------
6|-0-0-0-0-0-0-0-0-0-------------

fig3c
pm*************************
1|-------------------------------
2|-------------------------------
3|-------------------------------
4|-0-0-0-0-0-0-0-0-0-0-0-003-0-1-
5|-0-0-0-0-0-0-0-0-0-0-0-003-0-1-
6|-0-0-0-0-0-0-0-0-0-0-0-003-0-1-





Ваше мнение



Капча