Song: “Pigs”
Artist: Primer 55
Album: Introduction To Mayhem
Transcribed By: Bryan Bramlett ([email protected])

Tuning: 1/2 Step Down, Drop D

MAIN RIFF:
|------------------------| |--------------|
|------------------------|play|--------------|
|------------------------| 3X |--------------|
|-0-2-X-2/3--5-X-2-2/32-|then|-0-2-X-2/3--5-|
|-0-2-X-2/3--5-X-2-2/32-| |-0-2-X-2/3--5-|
|-0-2-X-2/3--5-X-2-2/32-| |-0-2-X-2/3--5-|

VERSE:
|--------------------------------|
|--------------------------------|
|--------------------------------|
|--------------------------------|
|-0-2-X-2/3--5--2---0-2-X-2/3--5-|
|-0-2-X-2/3--5--2---0-2-X-2/3--5-|

INTERLUDE:
|-------------------|
|-------------------|
|-------------------|
|-XXXX-X-XX-0-2-3-0-|
|-XXXX-X-XX-0-2-3-0-|
|-XXXX-X-XX-0-2-3-0-|

INTERLUDE 2:
|-----------|
|-----------|
|-----------|
|-0--2----3-|
|-0--2----3-|
|-0--2----3-|





Ваше мнение



Капча