Primer 55 - Loose
Guitarist:Bobby Burns
tuning:Db Ab Db Gb Bb Eb ()=harmonic ~=vibrato
intro
Db|---------------------| |3-2-0-0-2-1-0-0-2-1-0|
Ab|---------------------|4x|3-2-0-0-2-1-0-0-2-1-0|8x
Db|3/2-0-0-2/1-0-0-2-1-0| |3-2-0-0-2-1-0-0-2-1-0|
verse
Eb|--------(19)---| |-----------------------------|
Bb|----(19)----20~|3x|----(19)---------------------|
Gb|(19)-----------| |(19)-------------------------|
Db|---------------| |-----------------------------|
Ab|---------------| |-----------------------------|
Db|---------------| |--------3/2-0-0-2/1-0-0-2/1-0|
chorus
Db|3-2-0-0-2-1-0-0-2-1-0|
Ab|3-2-0-0-2-1-0-0-2-1-0|
Db|3-2-0-0-2-1-0-0-2-1-0|
bridge
Db|0----3----|
Ab|0----3----|
Db|0----3----|
its easy as all hell once you get the timing down and all so have fun
========
Primer 55 - Loose
E----------------------------------------------------------------------------------
B----------------------------------------------------------------------------------
G----------------------------------------------------------------------------------
D----------------------------------------------------------------------------------
A----------------------------------------------------------------------------------
D-3-2-0-0-2-1-0-0-2-1-0-3-2-0-0-2-1-0-0-2-1-0---------------------------------------
LOOSE!..........
E----------------------------------------------------------------------------------
B----------------------------------------------------------------------------------
G----------------------------------------------------------------------------------
D-3-2-0-0-2-1-0-0-2-1-0-3-2-0-0-2-1-0-0-2-1-0--------------------------------------
A-3-2-0-0-2-1-0-0-2-1-0-3-2-0-0-2-1-0-0-2-1-0--------------------------------------
D-3-2-0-0-2-1-0-0-2-1-0-3-2-0-0-2-1-0-0-2-1-0--------------------------------------
CHORUS
E-15-17-11--15-17-11--15-17-11--15-17-11------------------------------------------
B-15-17-11--15-17-11--15-17-11--15-17-11------------------------------------------
G-15-17-11--15-17-11--15-17-11--15-17-11------------------------------------------
D---------------------------------------------------------------------------------
A---------------------------------------------------------------------------------
D---------------------------------------------------------------------------------
VERSE
REPEAT CHORUS
REPEAT VERSE
THEN........
E --------------------------------------------------------
B --------------------------------------------------------
G --------10~~----------10~~----------10~~----------10~~--
D -0~~----X------0~~----X------0~~----X------0~~----X-----
A -0~~----8~~----0~~----8~~----0~~----8~~----0~~----8~~---
D -0~~-----------0~~-----------0~~-----------0~~----------
E----------------------------------------------------------------------------------
B----------------------------------------------------------------------------------
G----------------------------------------------------------------------------------
D----------------------------------------------------------------------------------
A----------------------------------------------------------------------------------
D-3-2-0-0-2-1-0-0-2-1-0-3-2-0-0-2-1-0-0-2-1-0--------------------------------------
G----------------------------------------------------------------------------------
D-3-2-0-0-2-1-0-0-2-1-0-3-2-0-0-2-1-0-0-2-1-0--------------------------------------
A-3-2-0-0-2-1-0-0-2-1-0-3-2-0-0-2-1-0-0-2-1-0--------------------------------------
D-3-2-0-0-2-1-0-0-2-1-0-3-2-0-0-2-1-0-0-2-1-0--------------------------------------
================
Primer 55
Loose
Drop D down 1/2 step
fig1a
1|---------------------------
2|---------------------------
3|---------------------------
4|---------------------------
5|---------------------------
6|-3-2--0-0--2-1--0-0--2-1-0-
fig1b pm*
1|---------------------------
2|---------------------------
3|---------------------------
4|---------------------2-1-0-
5|---------------------2-1-0-
6|-3-2--0-0--2-1--0-0--2-1-0-
fig1c
1|---------------------------
2|---------------------------
3|---------------------------
4|-3-2--0-0--2-1--0-0--2-1-0-
5|-3-2--0-0--2-1--0-0--2-1-0-
6|-3-2--0-0--2-1--0-0--2-1-0-
fig1d
1|---------------------------
2|---------------------------
3|---------------------------
4|-3-2--0-0--2-1--0-0--x-x-x-
5|-3-2--0-0--2-1--0-0--x-x-x-
6|-3-2--0-0--2-1--0-0--x-x-x-
fig1d
1|--------------------
2|--------------------
3|--------------------
4|-3-2--0-0--2-1--0-0-
5|-3-2--0-0--2-1--0-0-
6|-3-2--0-0--2-1--0-0-
fig2 w/out distortion
1|------7--------7-----------
2|---7-----------8-----------
3|---------------------------
4|---------------------------
5|---------------------------
6|---------------------------
fig3a w/wah
1|--------------------------------
2|--------------------------------
3|--------------------------------
4|--------------------------------
5|------------------8---8---8---8-
6|-0---0---0---0------------------
fig3b w/wah
1|----------------------------------
2|----------------------------------
3|----------------------------------
4|----------------------------------
5|--------xxx--xxx--8---8--xxx--xxx-
6|-0---0--xxx--xxx---------xxx--xxx-





Ваше мнение



Капча