|---!!Do not change this info!!---|
Song: introduction to mayhem
Band: Primer55
Album: introduction to mayhem
Tabbed by: Phoenix (chris wilson)
E-mail: [email protected]
=slide
h=hammer on

Tuning: Dropped D down 1/2 step

intro and verse
---------------------------------|
---------------------------------|
---------------------------------|
0-22--222-233-0-22--222---------|
0-22--222-233-0-22--222---------|
0-22--222-233-0-22--222---------|

pre chorus
-------------------------------|
-------------------------------|
---------4-457---------------|
0-2h35--4-457---------------|
0-2h35--2-235---------------|
0-2h35------------------------|

chorus
-------------------------------|
-------------------------------|
-------------------------------|
0-22-0-22-0-33-0-22-0-22-033---|}this is not the exact # on notes but, if you listen
0-22-0-22-0-33-0-22-0-22-033---|to the song you will get the feel
0-22-0-22-0-33-0-22-0-22-033---|





Ваше мнение



Капча